The Frank And Walters Tabs

Changed My Way Of Thinking

1 versions

TAB

            Intro:

e--------------------------------------------------------------------------|
b--------------------------------------------------------------------------|
g----------------------5-5-5-7-7-7-7---------------5-5-5-------------------|
d-------5-5-5-7-7-7-7----------------5-5-5-7-7-7-7--------7-7-7-7----------|
a--------------------------------------------------------------------------|
e--------------------------------------------------------------------------|

e--------------------------------------------------------------------------|
b--------------------------------------------------------------------------|
g----------------------5-5-5-7-7-7-7-9-9-7-7-9-9-7-7-----------------------|
d-------5-5-5-7-7-7-7------------------------------------------------------|
a--------------------------------------------------------------------------|
e--------------------------------------------------------------------------|

Verse:
C Am F C Am G

Bridge:
F C F G

Verse:
C G F

(had no lyrics to hand, apologies)

Sig Doherty
www.indiedelights.com    

Added On December 16th, 2013

SHARE

Comments

blog comments powered by Disqus

ADVERTISEMENT