The Front Bottoms Tabs

The Beers

1 versions

TAB

            Intro
e|---------------------------------------------------------------|
B|---------------------------------------------------------------|
G|---------------------------------------------------------------|
D|---------------------------------------------------------------|
A|--4----7----2----9---------------------------------------------|
E|--2----5----0----7---------------------------------------------|

Verse
e|---------------------------------------------------------------|
B|---------------------------------------------------------------|
G|---------------------------------------------------------------|
D|---------------------------------------------------------------|
A|--11--11----7----9---------------------------------------------|
E|--9---0-----5----7---------------------------------------------|

pre-chorus
e|---------------------------------------------------------------|
B|---------------------------------------------------------------|
G|---------------------------------------------------------------|
D|---9-(4x)------------------------------------------------------|
A|---7-------9-(4x)--4-(8x)--------------------------------------|
E|-----------7-------2-------------------------------------------|

Chorus
e|---------------------------------------------------------------|
B|---------------------------------------------------------------|
G|---------------------------------------------------------------|
D|---------------------------------------------------------------|
A|---7---9---2---6---------------------------------------------------|
E|---5---7---0---4---------------------------------------------------|

The strumming is very easy and you can figure it out by yourself
Pretty easy song by a great band    

Added On December 16th, 2013

SHARE

Comments

blog comments powered by Disqus

ADVERTISEMENT