The Growlers Tabs

In Between

1 versions

TAB

            In Between
The Growlers
Hung at Heart


E|----3--------3---------5---------7----3--3--3--5--3---------------------|
B|--5---5----3---3-----5---5-----9------3--3----------5--5--3--5--3-------|
G|5--------4-------4s6-------7s9-------------------------------------4--5-|
D|------------------------------------------------------------------------|
A|------------------------------------------------------------------------|
E|------------------------------------------------------------------------|
                            main riff x5


E|----5------8--------5------8-------------------|     these two chords
B|----5------8--------5------8-------------------|     during the "you dont
G|----6------9--------6------9-------------------|     have to worry sir"
D|-----------------------------------------------|
A|-----------------------------------------------|
E|-----------------------------------------------|    

Added On December 16th, 2013

SHARE

Comments

blog comments powered by Disqus

ADVERTISEMENT