The Holdup Tabs

The Drugs

1 versions

TAB

            The Drugs
The Holdup
Still Gold

Pattern used throughout Intro, Verse, and Chorus

|--5---5---7---7---2---2---5---5----|
|--5---5---7---7---2---2---7---7----|
|--6---6---7---7---2---2---7---7----|
|--7---7---9---9---4---4---7---7----|
|--7---7---9---9---4---4---5---5----|
|--5---5---7---7---2---2------------|


Chorus Guitar 2
|--12-12-12----------------------------------------|
|-----------14-14-14-12-12-12-12-12-12-12-12-12-12-|
|--------------------------------------------------|
|--------------------------------------------------|
|--------------------------------------------------|
|--------------------------------------------------|

|--------------------------------------------------|
|--15-15-15-14-14-14-10-10-10-10-10-10-10-10-10-10-|
|--------------------------------------------------|
|--------------------------------------------------|
|--------------------------------------------------|
|--------------------------------------------------|




Post Chorus:

|--------------------------------------------------------|
|-12-10----12-10---10-10-10----14-12-10-14-12---12-12-12-|
|-------11-----------------------------------------------| x3
|--------------------------------------------------------|
|--------------------------------------------------------|
|--------------------------------------------------------|

|---------------------------12-9----9--------------------|
|-12-10----12-10-----------------12---12-10-12-10--------|
|-------11-----------------------------------------------|
|--------------------------------------------------------|
|--------------------------------------------------------|
|--------------------------------------------------------|


That's all i have for now. That's the majority of the song except the bridge, which uses 
the same chords as the whole song, and the part after the bridge which shouldn't be too 
hard to figure out.
This song is a jam. Enjoy it!    

Added On December 16th, 2013

SHARE

Comments

blog comments powered by Disqus

ADVERTISEMENT