The Jezabels Tabs

A Little Piece

1 versions

TAB

            http://www.thejezabels.com/

Sorry about the solo part in the bridge, it was too long to fit on one line.


e----0----4444---0----4444--------4444--------4444-|
B--2---22------2---22------0-4-00------0-4-00------|
G--------------------------------------------------|
D--------------------------------------------------|
A--------------------------------------------------|
E--------------------------------------------------|



e----0----4444---0----4444--------4444--------4444-|
B--2---22------2---22------0-4-00------0-4-00------|
G--------------------------------------------------|
D--------------------------------------------------|
A--------------------------------------------------|
E--------------------------------------------------|
There's a cold, easy glow, dancing over our street
Could have chased it down, I could have held you love

e----0----4444---0----4444---------|
B--2---22------2---22--------------|
G----------------------------------|
D----------------------------------|
A--------------------------0---0---|
E----------------------------------|
But wouldn't you think me weak?


e----------------------------------|
B----------------------------------|
G----------------------------------|
D----------------------------------|
A--4---4-------------------0---0---|
E----------7---7---0---0-----------|
All I should, how the streets come and go
You chase the kaliedoscope dream
But stranger, baby, always keep me
In your sweet memory



e-----------------------------------|
B--5---5----------------------------|
G--6---6---8---8----6---1---8---8---|
D--6---6---9---9----7---2---9---9---|
A--4---4---9---9----7---2---9---9---|
E----------7---7----5-------7---7---|

e-----------------------------------|
B--5---5----------------------------|
G--6---6---8---8----6---1---8---8---|
D--6---6---9---9----7---2---9---9---|
A--4---4---9---9----7---2---9---9---|
E----------7---7----5-------7---7---|



e------------------|
B--5---5-----------|
G--6---6---8---8---|
D--6---6---7---7---|
A--4---4---7---7---|
E----------9---9---|
Biting cold, thrashing, scolding
Drown me under our street
Perfect hips, perfect hips, she was, perfect lips, pieces of your heart

e------------------|
B--5---5-----------|
G--6---6---6---6---|
D--6---6---7---7---|
A--4---4---7---7---|
E----------5---5---|
Splattered on the cliff

e----------------------------------|
B--5---5---------------------------|
G--6---6---8---8---1---1---6---6---|
D--6---6---7---7---2---2---7---7---|
A--4---4---7---7---2---2---7---7---|
E----------9---9-----------5---5---|
We go home, watch a movie
Tell me, can you feel the beat?

e----------------------------------|
B------------------5---5-----------|
G--1---1---8---8---6---6---6---6---|
D--2---2---9---9---6---6---7---7---|
A--2---2---9---9---4---4---7---7---|
E----------7---7-----------5---5---|
Getting loose, getting loose, she was
Letting loose, feelings loose, she was
Becoming a monster



e-----------------------------------|
B--5---5----------------------------|
G--6---6---8---8----6---1---8---8---|
D--6---6---9---9----7---2---9---9---|
A--4---4---9---9----7---2---9---9---|
E----------7---7----5-------7---7---|
She drew the line, in her mind
She was not, holding on



e-----------------------------------|
B--5---5----------------------------|
G--6---6---8---8----6---1---8---8---|
D--6---6---9---9----7---2---9---9---|
A--4---4---9---9----7---2---9---9---|
E----------7---7----5-------7---7---|



e------------------------------------------------------------------|
B----------------------------------5---5---5---5-------------------|
G--1---1---1---1---6---6---6---6---6---6---6---6---6---6---6---6---|
D--2---2---2---2---7---7---7---7---6---6---6---6---7---7---7---7---|
A--2---2---2---2---7---7---7---7---4---4---4---4---7---7---7---7---|
E------------------5---5---5---5-------------------5---5---5---5---|
From the oven
e-----00-4-44----00-4-44---00-4-44---00-4-44-|
B--22--------22---------22--------22---------|
G--------------------------------------------|
D--------------------------------------------|
A--------------------------------------------|
E--------------------------------------------|
>Carries on . . .
e----00-44---00-44---00-44---00-44---0-44---0-44---0-44---0-44-|
B--0-------0-------0-------0-------2------2------2------2------|
G--------------------------------------------------------------|
D--------------------------------------------------------------|
A--------------------------------------------------------------|
E--------------------------------------------------------------|

e-----00-4-44----00-4-44---00-4-44---00-4-44-|
B--22--------22---------22--------22---------|
G--------------------------------------------|
D--------------------------------------------|
A--------------------------------------------|
E--------------------------------------------|
>Carries on . . .
e----00-44---00-44---00-44---00-44---0-44---0-44---0--0-4--|
B--0-------0-------0-------0-------2------2------2---------|
G----------------------------------------------------------|
D----------------------------------------------------------|
A----------------------------------------------------------|
E----------------------------------------------------------|


e----------------------------------|
B--5---5---------------------------|
G--6---6---8---8---1---1---6---6---|
D--6---6---7---7---2---2---7---7---|
A--4---4---7---7---2---2---7---7---|
E----------9---9-----------5---5---|
And it was who let the girl out, let the dog out
Who let the girl out, don't you miss me the way I miss you?
Sailor, sailor, sailor, I'm sending the birds, to watch over you



e-----------------------------------|
B--5---5----------------------------|
G--6---6---8---8----6---1---8---8---|
D--6---6---9---9----7---2---9---9---|
A--4---4---9---9----7---2---9---9---|
E----------7---7----5-------7---7---|



e----------------------------------|
B--5---5---------------------------|
G--6---6---8---8---1---1---6---6---|
D--6---6---7---7---2---2---7---7---|
A--4---4---7---7---2---2---7---7---|
E----------9---9-----------5---5---|
On your knees, face me, cherry pie, baby
On your knees, face me, cherry pie, baby



e------------------|
B--5---6---6---6---|
G--6---5---5---5---|
D--6---5---5---5---|
A--4---4---4---4---|
E------------------|    

Added On December 16th, 2013

SHARE

Comments

blog comments powered by Disqus

ADVERTISEMENT