The Jezabels Tabs

Dark Storm

1 versions

TAB

            e------------------------------------------------------------------|
B------------------------------------------------------------------|
G------------------------------------------------------------------|
D--4444-44---------------------------------------------------------|
A----------4444-44-0000-00---------2222-22-2222-22-2222-22-2222-22-|
E--------------------------0000-00---------------------------------|



e------------------------------------------------------------------|
B------------------------------------------------------------------|
G------------------------------------------------------------------|
D--4444-44---------------------------------------------------------|
A----------4444-44-0000-00---------2222-22-2222-22-2222-22-2222-22-|
E--------------------------0000-00---------------------------------|
Bright white Cockatoo, baby how I ponder your shadow
How you rip me off me feet, rape me of my time to sleep shallow



e--------------------------------------------|
B--------------------------------------------|
G--11----------6----1----8----8----8----8----|
D--11----11----7----2----9----9----9----9----|
A--9-----11----7----2----9----9----9----9----|
E--------9-----5---------7----7----7----7----|
And from the sky, she speaks to me
And, through her melody, lingers
I said 'No, I don't want your love, no, I don't care anymore, Finger.'
Though I was eqipped with a rain-ship, and a star-ship and a fire-ship, all come to dance



e-------------------------------------------|
B-------------------------------------------|
G--6----1----1----------8----8----8----8----|
D--7----2----2----11----9----9----9----9----|
A--7----2----2----11----9----9----9----9----|
E--5--------------9-----7----7----7----7----|
No one told me the end of the line could be only emptiness



e--------------------------------------------------------------------------------------|
B--------------------------------------------------------------------------------------|
G--------------1----1----------------1----1----------------1----1----8--------8--------|
D--11----11----2----2----11----11----2----2----11----11----2----2----9--------9--------|
A--11----11----2----2----11----11----2----2----11----11----2----2----9--------9--------|
E--9-----9---------------9-----9---------------9-----9---------------7--------7--------|
That would swallow all my love
I fell beneath the company
Now shall I sleep in a bed of blood
Down in the deep, the rolling sea



e--------------------------------------------|
B--------------------------------------------|
G--11----------6----1----8----8----8----8----|
D--11----11----7----2----9----9----9----9----|
A--9-----11----7----2----9----9----9----9----|
E--------9-----5---------7----7----7----7----|

e----------------------------------------------------------------------------------|
B----------------------------------------------------------------------------------|
G----------------------------------------------------------------------------------|
D--4444-2222-7777-6666-4444-4662-2444-4444-4444-2222-7777-6666-4444-4666-6666-9----|
A----------------------------------------------------------------------------------|
E----------------------------------------------------------------------------------|
                                      And in my angst for cool hips or softness or 
morning glow confidence



e--------------------------------------------|
B--------------------------------------------|
G--11----------6----1----8----8----8----8----|
D--11----11----7----2----9----9----9----9----|
A--9-----11----7----2----9----9----9----9----|
E--------9-----5---------7----7----7----7----|
I took it to the dog, took it to the plants
Took it to the beach, I took it to the shark: I found tenderness
But when I took it to the sky, to the bright white
Cockatoo on a satellite, she looked down my years
But with a click of her Finger she goes higher



e----------------------------------------------|
B----------------------------------------------|
G--------------6----1----------------6----1----|
D--11----11----7----2----11----11----7----2----|
A--11----11----7----2----11----11----7----2----|
E--9-----9-----5---------9-----9-----5---------|
Than the call for children, higher than the stand that kills it

e-------------------------------------------|
B-------------------------------------------|
G--6----1----1----------8----8----8----8----|
D--7----2----2----11----9----9----9----9----|
A--7----2----2----11----9----9----9----9----|
E--5--------------9-----7----7----7----7----|
Should've flipped it off
I should of known there and then



e--------------------------------------------------------------------------------------|
B--------------------------------------------------------------------------------------|
G--------------1----1----------------1----1----------------1----1----8--------8--------|
D--11----11----2----2----11----11----2----2----11----11----2----2----9--------9--------|
A--11----11----2----2----11----11----2----2----11----11----2----2----9--------9--------|
E--9-----9---------------9-----9---------------9-----9---------------7--------7--------|
But she swallowed all my love
I fell beneath the company
And now I sleep in a bed of blood
Down in the deep, the rolling sea



e-------------------------------------------|
B-------------------------------------------|
G--6----1----1----------8----8----8----8----|
D--7----2----2----11----9----9----9----9----|
A--7----2----2----11----9----9----9----9----|
E--5--------------9-----7----7----7----7----|

e----------------------------------------------------------------------------------|
B----------------------------------------------------------------------------------|
G----------------------------------------------------------------------------------|
D--4444-2222-7777-6666-4444-4662-2444-4444-4444-2222-7777-6666-4444-4666-6666-9----|
A----------------------------------------------------------------------------------|
E----------------------------------------------------------------------------------|



e-------------------------------------------|
B-------------------------------------------|
G--6----1----1------------------------------|
D--7----2----2----11----9----9----9----9----|
A--7----2----2----11----9----9----9----9----|
E--5--------------9-----7----7----7----7----|

e-------------------------------------------|
B-------------------------------------------|
G--6----1----1----------8----8----8----8----|
D--7----2----2----11----9----9----9----9----|
A--7----2----2----11----9----9----9----9----|
E--5--------------9-----7----7----7----7----|
Oh you roll, roll over me
Yeah, you roll over me
Oh Pristine, my hopeless thing
Oh Pristine, my hopeless thing



e------------------------|
B------------------------|
G--6----6----6----6----6-|
D--7----7----7----7----7-|
A--7----7----7----7----7-|
E--5----5----5----5----5-|    

Added On December 16th, 2013

SHARE

Comments

blog comments powered by Disqus

ADVERTISEMENT