The Kooks Tabs

Naive Intro

1 versions

TAB

            Naive Tab by The Kooks


E||--------------------------------|--------------------------------|
B||--------------------------------|--------------------------------|
G||--------6-x---6-x-6-x--6p-4-----|--------9-x---6-x-6-x--6p-4-----|
D||--------4-x---4-x-4-x--4----x-x-|--(9)---9-x---4-x-4-x--4----x-x-|
A||--(6)---------------------------|---7----------------------------|
E||---4----------------------------|--------------------------------|

-------------------------------|-----------------------------||
-------------------------------|-----------------------------||
-------6-x---6-x-6-x--6p-4-----|------8------9-x-9-x-9-9-----||
-------4-x---4-x-4-x--4----x-x-|------9-x--x-8-x-8-x-8-8--x--||
-------------------------------|------9------9-x-9-x-9-9-----||
--/6---------------------------|--7--------------------------||

Hi everyone, this is the way i play Naive by The Kooks, it is a great song and i think 
is a more accurate transcription of the intro than any others that i have seen on the 
Hope you agree! enjoy!    

Added On December 12th, 2013

SHARE

Comments

blog comments powered by Disqus

ADVERTISEMENT