The Kooks Tabs

Picture Frame

1 versions

TAB

            -------------------------------------------------------------------------------
                             Picture Frame - The Kooks
-------------------------------------------------------------------------------
Tabbed by: michaelneuhaus

Tuning: Standart

2x:


   C                                 Bm                          
e|-0-------------------------------2---------------------7--7------|
B|-1------------------------0--0---3---------------------7--7------|
G|-0------------------------3--3---4------------------6--6--6------|
D|-2--------------------2----------4--------------5----------------|
A|-3-------------3-----------------2-------------------------------|
E|------------3-----2------------------------3/5-------------------|

   G
e|-3------------------------------------|
B|-3------------------------------------|
G|-4---------------0-------3------------|
D|-5------------2-------2---------------|
A|-5------------------------------------|
E|-3---------0-------2------------------|


************************************

| /   slide up
| strum the chords C Bm & G
| listen to the song for timing :-)

************************************    

Added On September 11th, 2014

SHARE

Comments

blog comments powered by Disqus

ADVERTISEMENT