The Living End Tabs

Waiting For The Silence

1 versions

TAB

            hey i didn't tab this, it was part of the longer, "white noise" album tab but this 
is a great song i wanted to single out, enjoy. 

Intro:
e------10-10-------------------------|
B------------10-10-7-7---------------|
G--2/7-----------------7-7-----------|
D------------------------------------|
A------------------------------------|
E------------------------------------| x 4

After second time through come in with rhythm
D, D, Bm,

e------10-10-------------------------|
B------------10-10-7-7---------------|
G--2/7-----------------7-4-----------|
D------------------------------------|
A------------------------------------|
E------------------------------------|

e-0~--|
B-0~--|
G-4~--|
D-5~--|
A-7~--|
E-0~--|
 Em

Verse:
"Opinions can be fatal"
e----------------------------------|
B----------------------------------|
G----------7---------------4-------|
D------4-----7-4-----4-5-4---4-----|
A----5---5-------5-------------5---|
E--7---------------3-------------5-| x3
 pm................................

e-0~--|
B-0~--|
G-4~--|
D-5~--|
A-7~--|
E-0~--|
 Em

e----------------------------------|
B----------------------------------|
G----------7---------------4-------|
D------4-----7-4-----4-5-4---4-----|
A----5---5-------5-------------5---|
E--7---------------3-------------5-| x3
 pm................................

e-0~--|
B-0~--|
G-4~--|
D-5~--|
A-7~--|
E-0~--|
 Em

Pre- Chorus:
e|--------------------------------------------------------------------------------|
b|-----3---3----3----3-----3--------2----2----2----2----2-------3----3----3----3--|
g|---2---2----2----2-----2---2----3----3----3----3----3---3---4----4----4----4----|
d|-0---0----0----0-----0--------4----4----4----4----4-------5----5----5----5----5-|
a|--------------------------------------------------------------------------------|
E|--------------------------------------------------------------------------------|

---------------------------------|
--3-------5----5----5----5----5--|
4---4---4----4----4----4----4----|
------6----6----6----6----6------|
---------------------------------|
---------------------------------|

I cant live
e|-----------------------------|
b|-2-2-2-2-2-2-2-2-2-2-2-2-2-2-|
g|-2-2-2-2-2-2-2-2-2-2-2-2-2-2-|
d|-2-2-2-2-2-2-2-2-2-2-2-2-2-2-|
a|-0-0-4-4-4-4-4-4-4-4-4-4-4-4-|
E|-----------------------------| x2
     pm.......................

Chorus:
e|--3-3-3-3-----------2-2-2-2--2-2-0-0--|
B|--3-3-3-3--2-2-2-2--2-2-2-2--3-3-3-3--|
G|--0-0-0-0--2-2-2-2--2-2-2-2--4-4-4-4--| X2
D|--0-0-0-0--0-0-0-0--4-4-4-4--4-4-4-4--|
A|--2-2-2-2--x-x-x-x--4-4-4-4--2-2-2-2--|
E|--3-3-3-3--3-3-3-3--2-2-2-2-----------|

e|--3-3-3-3-----------2-2-2-2--2-2-2-2--|
B|--3-3-3-3--2-2-2-2--3-3-3-3--3-3-3-3--|
G|--0-0-0-0--2-2-2-2--2-2-2-2--4-4-4-4--|
D|--0-0-0-0--2-2-2-2--0-0-0-0--4-4-4-4--|
A|--2-2-2-2--0-0-0-0-----------2-2-2-2--|
E|--3-3-3-3-----------------------------|

e|--2-2-2-2--3-3-3-3--3-3-3-3--|
B|--2-2-2-2--3-3-3-3--3-3-3-3--|
G|--2-2-2-2--4-4-4-4--3-3-3-3--|
D|--4-4-4-4--5-5-5-5--5-5-5-5--| and back to intro line
A|--4-4-4-4--5-5-5-5--5-5-5-5--|
E|--2-2-2-2--3-3-3-3--3-3-3-3--|

Intro Riff:
e------10-10-------------------------|
B------------10-10-7-7---------------|
G--2/7-----------------7-7-----------|
D------------------------------------|
A------------------------------------|
E------------------------------------|x2
Play Bm and G underneath the intro riff.

Verse:
e----------------------------------|
B----------------------------------|
G----------7---------------4-------|
D------4-----7-4-----4-5-4---4-----|
A----5---5-------5-------------5---|
E--7---------------3-------------5-| x3


e-0~--|
B-0~--|
G-4~--|
D-5~--|
A-7~--|
E-0~--|
 Em

Pre-Chorus:
e|---------------------------------------------------------------------------------|
b|-----3---3----3----3-----3--------2----2----2----2----2-------3----3----3----3---|
g|---2---2----2----2-----2---2----3----3----3----3----3---3---4----4----4----4-----|
d|-0---0----0----0-----0--------4----4----4----4----4-------5----5----5----5----5--|
a|---------------------------------------------------------------------------------|
E|---------------------------------------------------------------------------------|

---------------------------------|
--3-------5----5----5----5----5--|
4---4---4----4----4----4----4----|
------6----6----6----6----6------|
---------------------------------|
---------------------------------|

I cant live
e|-----------------------------|
b|-2-2-2-2-2-2-2-2-2-2-2-2-2-2-|
g|-2-2-2-2-2-2-2-2-2-2-2-2-2-2-|
d|-2-2-2-2-2-2-2-2-2-2-2-2-2-2-|
a|-0-0-4-4-4-4-4-4-4-4-4-4-4-4-|
E|-----------------------------| x2
     pm.......................

Chorus:
e|--3-3-3-3-----------2-2-2-2--2-2-0-0--|
B|--3-3-3-3--2-2-2-2--2-2-2-2--3-3-3-3--|
G|--0-0-0-0--2-2-2-2--2-2-2-2--4-4-4-4--| X2
D|--0-0-0-0--0-0-0-0--4-4-4-4--4-4-4-4--|
A|--2-2-2-2--x-x-x-x--4-4-4-4--2-2-2-2--|
E|--3-3-3-3--3-3-3-3--2-2-2-2-----------|

e|--3-3-3-3-----------2-2-2-2--2-2-2-2--|
B|--3-3-3-3--2-2-2-2--3-3-3-3--3-3-3-3--|
G|--0-0-0-0--2-2-2-2--2-2-2-2--4-4-4-4--|
D|--0-0-0-0--2-2-2-2--0-0-0-0--4-4-4-4--|
A|--2-2-2-2--0-0-0-0-----------2-2-2-2--|
E|--3-3-3-3-----------------------------|

e|--2-2-2-2--3-3-3-3--3-3-3-3--|
B|--2-2-2-2--3-3-3-3--3-3-3-3--|
G|--2-2-2-2--4-4-4-4--3-3-3-3--|
D|--4-4-4-4--5-5-5-5--5-5-5-5--|
A|--4-4-4-4--5-5-5-5--5-5-5-5--|
E|--2-2-2-2--3-3-3-3--3-3-3-3--|

e------------------------------7-9-10--|
B----------7---7-8-7-8-10-8-10---------|
G--7-6-7-9---9-------------------------|
D--------------------------------------|
A--------------------------------------|
E--------------------------------------|

Interlude:
e--9--9--9--9--9--9--10-10-10-10-10-10-|
B--10-10-10-10-10-10-12-12-12-12-12-12-|
G--11-11-11-11-11-11-11-11-11-11-11-11-|
D--11-11-11-11-11-11-12-12-12-12-12-12-| X2
A--9--9--9--9--9--9--10-10-10-10-10-10-|
E--------------------------------------|
Hold the Gmaj7 on the last time until quite bit with strings:

e-------------------------------------------------------2-------|
B--0---0---0---0---2---2---2---2---2---2-3-2----------3----3----|
G----0---0---0---0---2---2---2---2---2--------2-----4--------4--|
D----------------------------------4--------------4-------------| X2
A---------------------------------------------------------------|
E--3------------------------------------------------------------|

e----------------2--3---|
B--0---0---2---2----3---|
G----0---0---2------3---|
D-------------------5---|
A-----------------------|
E--3--------------------|

Lead break w/octave and delay:
e------------10----------------7---------|
B--7-10-7-------10-7----7-8-7----7-------|
G--------------------7-------------7-----|
D------------------------------------9---|
A----------------------------------------|
E----------------------------------------|

e------------10----------------7---------|
B--7-10-7-------10-7----7-8-7----7-------|
G--------------------7-------------7-----|
D------------------------------------7---|
A----------------------------------------|
E----------------------------------------|

e------------------------------------|
B--7-----10-7-------------7-8-10-12--|
G----7--------7-----7---7------------|
D------9--------9-----9--------------|
A------------------------------------|
E------------------------------------|

e-------------------------------------------------------------------------------------------------|
B-10~-----------------12-12-14-14-14~---------------15-15--17-17-17~----------------19-19-20-20-20|
G-------------------------------------------------------------------------------------------------|
D-7~------------------9--9--11-11-11~---------------12-12--14-14-14~----------------16-16-17-17-17|
A0-0-0-0-0-0-0-0-0-0-0-0-0-0-0-0-0-0-0-0-0-0-0-0-0-0-0-0-0-0-0-0-0-0-0-0-0-0-0-0-0-0-0-0-0-0-0-0-0|
E-------------------------------------------------------------------------------------------------|
Hang on the last G octave as needed

e------------------|
B------------------|
G--2-2-2-2-2-2-2-2-|
D--2-2-2-2-2-2-2-2-|
A--0-0-0-0-0-0-0-0-|
E------------------|

Chorus:
e|--3-3-3-3-----------2-2-2-2--2-2-0-0--|
B|--3-3-3-3--2-2-2-2--2-2-2-2--3-3-3-3--|
G|--0-0-0-0--2-2-2-2--2-2-2-2--4-4-4-4--| X2
D|--0-0-0-0--0-0-0-0--4-4-4-4--4-4-4-4--|
A|--2-2-2-2--x-x-x-x--4-4-4-4--2-2-2-2--|
E|--3-3-3-3--3-3-3-3--2-2-2-2-----------|

e|--3-3-3-3-----------2-2-2-2--2-2-2-2--|
B|--3-3-3-3--2-2-2-2--3-3-3-3--3-3-3-3--|
G|--0-0-0-0--2-2-2-2--2-2-2-2--4-4-4-4--|
D|--0-0-0-0--2-2-2-2--0-0-0-0--4-4-4-4--|
A|--2-2-2-2--0-0-0-0-----------2-2-2-2--|
E|--3-3-3-3-----------------------------|

e|--2-2-2-2--0-0-0-0-------------------|
B|--2-2-2-2--0-0-0-0--2-2-2-2-2-2-2-2--|
G|--2-2-2-2--0-0-0-0--2-2-2-2-2-2-2-2--|
D|--4-4-4-4--2-2-2-2--2-2-2-2-2-2-2-2--|
A|--4-4-4-4--2-2-2-2--0-0-0-0-0-0-0-0--|
E|--2-2-2-2--0-0-0-0-------------------|

Intro Riff plus extra:
e------10-10------------------------|
B------------10-10-7-7--------------|
G--2/7-----------------7-6----------|
D--------------------------7-5-4-2--|
A-----------------------------------|
E-----------------------------------|
Play D and F#
e------10-10------------------7----7-9--|
B------------10-10-7-8-7-8-10---10------|
G--2/7----------------------------------|
D---------------------------------------|
A---------------------------------------|
E---------------------------------------| REPEAT WHOLE SECTION
Play G and A

Intro Riff:
e------10-10-------------------------|
B------------10-10-7-7---------------|
G--2/7-----------------7-7-----------|
D------------------------------------|
A------------------------------------|
E------------------------------------| x 3
Bm G Bm G Bm G Em

e-0~--|
B-0~--|
G-4~--|
D-5~--|
A-7~--|
E-0~--|
 Em

Outro with delay:
e-----------------|
B-----------------|
G---------4-------|
D-----5-4---4-5---|
A---7-----------7-|
E-0---------------|
pm................    

Added On December 16th, 2013

SHARE

Comments

blog comments powered by Disqus

ADVERTISEMENT