The Maine Tabs

We All Roll Along

1 versions

TAB

            This is a pretty easy song and all of the credits goes to the guy on the youtube link 
I'm just rewriting in tabs.
http://www.youtube.com/watch?v=2jStRjYpFrg
Give him some feedback, if you'd like.
http://www.youtube.com/watch?v=TV2oQS5KT7s
Watch this video for the strumming.


Tuning: Stardard
I'm pretty positive that this is 100% correct.

Intro:
e|--0----------0----------0----------|
B|--0----------0----------0----------|
G|--6----------6----------4----------|
D|--7----------6----------4----------|
A|--7----------4----------2----------|
E|--5----------x----------x----------| x2


Verse:
e|--0----------0----------0----------|
B|--2----------0----------0----------|
G|--2----------1----------4----------|
D|--2----------2----------4----------|
A|--0----------2----------2----------|
E|--0----------0----------x----------| x4
I remember every night we spent on weekends with good friends
We did nothing but it seems like we did so much back then
Oh back then we were kicking, laughing, all relaxing and taking things for granted
We did anything but just that little rush (oh yeah)


Pre-Chorus:
e|--0----------0----------|
B|--0----------0----------|
G|--6----------1----------|
D|--6----------2----------|
A|--4----------2----------|
E|--x----------0----------| x3
Just don't forget this
We won't regret this
We've got one chance to get it

e|--0----------|
B|--0----------|
G|--4----------|
D|--4----------|
A|--2----------|
E|--x----------|
right


Chorus:
e|--0----------0----------0----------0----------0----------0----------|
B|--0----------0----------0----------2----------0----------0----------|
G|--6----------6----------4----------2----------1----------4----------|
D|--7----------6----------4----------2----------1----------4----------|
A|--7----------4----------2----------0----------2----------2----------|
E|--5----------x----------x----------0----------0----------x----------|
We're alive and we drive to the center of it
Where we know we're all fine
And this just can't be it

e|--0----------0----------0----------|
B|--0----------0----------0----------|
G|--6----------6----------4----------|
D|--7----------6----------4----------|
A|--7----------4----------2----------|
E|--5----------x----------x----------|
And in the end we all know
We only breathe for so long
So tonight's the night we all roll along


Intro x1

Verse
Oh back to it for a cigarette
And well, we can't forget all the faces that we have met
81.23. means everything to me
Take you back to the parking lots, the sleep we fought, and all the places we got caught
This place will always be a part of me
Yeah, you're all a part of me

Pre-Chorus
Just don't forget this
We won't regret this
We've got one chance to get it right

Chorus
We're alive and we drive to the center of it
Where we know we're all fine
And this just can't be it
And in the end we all know
We only breathe for so long
So tonight's the night we all roll along


Interlude:
e|--0----------0----------0----------|
B|--0----------0----------2----------|
G|--9----------8----------2----------|
D|--9----------9----------2----------|
A|--7----------7----------0----------|
E|--x----------x----------0----------|
I remember every day that I spent dreaming of leaving this place behind
I would run away from thinking
Adding up all the days spent wasted
Chasing the girls we hated
Some things they, they never change

e|--0----------0----------0----------0----------|
B|--0----------0----------0----------2----------|
G|--6----------8----------9----------2----------|
D|--6----------8----------9----------2----------|
A|--4----------6----------7----------0----------|
E|--x----------x----------x----------0----------|
Take me back to the sleepless nights, the stupid fights
And oh, it never mattered who was wrong or who was

e|--0----------0----------0----------|
B|--0----------0----------0----------|
G|--6----------8----------9----------|
D|--6----------8----------9----------|
A|--4----------6----------7----------|
E|--x----------x----------x----------|
right and now you're all a part of me

Chorus x1    

Added On December 16th, 2013

SHARE

Comments

blog comments powered by Disqus

ADVERTISEMENT