The Myriad Tabs

When Fire Falls

1 versions

TAB

            e|11----10------10|-----10-----11------10------11---10------11------10---10|
 B|---9-----10-9---|9-10----10-----10-9----10-9----9----10-9----10-9----9---|
 G|-------------------------------------------------------------------------|
 D|-------------------------------------------------------------------------|
 A|-------------------------------------------------------------------------|
 E|Guitar 1: Intro----repeat through out intro------------------------------|

 e|-------------------------------------------------------------|
 B|-------------------------------------------------------------|
 G|-------------------------------------------------------------|
 D|------------------------------------------3333333333333333333|
 A|5555555555-44444444-333333333-2222222222-1-------------------|
 E|I have lost all my patience for your games-------------------|


 e|can't you see my blood is wearing thin--------------------------|
 B|1818181818181818171717171717171717151515151515141414141414141414|x2
 G|----------------------------------------------------------------|
 D|----------------------------------------------------------------|
 A|----------------------------------------------------------------|
 E|----------------------------------------------------------------|


  
 e|11----10------10|-----10-----11------10------11---10------11------10---10|
 B|---9-----10-9---|9-10----10-----10-9----10-9----9----10-9----10-9----9---|
 G|-------------------------------------------------------------------------|
 D|-------------------------------------------------------------------------|
 A|-------------------------------------------------------------------------|
 E|with boots to my rib cage------------------------------------------------|

 e|-------------------------------------------------------------|
 B|-------------------------------------------------------------|
 G|-------------------------------------------------------------|
 D|------------------------------------------3333333333333333333|
 A|5555555555-44444444-333333333-2222222222-1-------------------|
 E|I have lost all my patience for your games-------------------| 


 e|12-10-----12-----10-12---------------|
 B|------10------10---------------------|
 G|-------------------------------------|
 D|-------------------------------------|
 A|-------------------------------------|
 E|I have lost all my patience----------|

 e|can't you see my blood is wearing thin--------------------------|
 B|1818181818181818171717171717171717151515151515141414141414141414|x2
 G|----------------------------------------------------------------|
 D|----------------------------------------------------------------|
 A|----------------------------------------------------------------|
 E|----------------------------------------------------------------|

 e|can't you see my blood is wearing thin--------------------------------|
 B|1818181811818188181818171717171717171717151515151515141414141414141414|x2
 G|----------------------------------------------------------------------|
 D|----------------------------------------------------------------------|
 A|----------------------------------------------------------------------|
 E|----------------------------------------------------------------------|

e|--------------------------------------------------------|rhythm guitar
B|--------------------------------------------------------|
G|--------------------------------------------------------|
D|--------------------------------------------------------|
A|55555555/10-8-7-8-22222222/10-8-7-8-111111111/10-8-7-8-0|
E|--------------------------------------------------------|

e|10----10----10-----10----|
B|---10----10----10------10|
G|-------------------------|
D|-------------------------|
A|-------------------------|
E|-------------------------|ending

Bass Tab(Intro)

G|-------------------|
D|-------------------|
A|5-0-5|5|5-0-5---3-1|
E|-------------------|

G|--------------------------------------------------------------|
D|--------------------------------------------------------------|
A|55555555555-----------------------5-------5-------------------|chorus
E|--------------7777777777-66666666---6-5-6---6-5555555-99999999|    

Added On December 16th, 2013

SHARE

Comments

blog comments powered by Disqus

ADVERTISEMENT