The Paper Kites Tabs

Arms

1 versions

TAB

            Capo 3
Its not exact but its pretty similar to the actual song
 if just singing along it should sound fine.
The chords with the lyrics are below but ive tabbed out the intro and verse.
The chorus will sound fine with just picking chords C and Fmaj7.

Fmaj7
E|--0---|
B|--1---|
G|--2---|
D|--3---|
A|--0---|
E|--X---|

G
E|--0---|
B|--0---|
G|--0---|
D|--0---|
A|--2---|
E|--3---|

PICKING PATTERN

INTRO
e|----------------------------------------------------------------------|
B|-------1-----1---------1--------1---------1---------------------------|
G|-----------0--------0------------------2----2-------------------------|
D|----2----0-----0h2---------2--------2---------2-----------------------|    X2
A|--3---------------------3---------0--------------3--------------------|
E|----------------------------------------------------------------------|

VERSE
What can i give that is all for you
e|-------------------------------------------------------------------|
B|-------1-----1---------1--------1---------1------------------------|
G|-----------0--------0------------------2----2----------------------|
D|----2----0-----0h2---------2--------2---------2--------------------|
A|--3---------------------3---------0--------------3-----------------|
E|-------------------------------------------------------------------|

My hearts not good cus its                               split in two
e|-------------------------------------------------------------------------|
B|-------0------------------0-------------------1--------------------------|
G|----------0-----0------------0-----0-------------- 0----0----------------|
D|----0--------0---------0--------0----------2---------2-------------------|
A|-----------------------------------------3-----------------3-------------|
E|--3-----------------3----------------------------------------------------|

What can i give that is all for you
e|-------------------------------------------------------------------|
B|-------1-----1---------1--------1---------1------------------------|
G|-----------0--------0------------------2----2----------------------|
D|----2----0-----0h2---------2--------2---------2--------------------|
A|--3---------------------3---------0--------------3-----------------|
E|-------------------------------------------------------------------|
These arms are all i have
e|------------------------------------------------------------------------|
B|-------0------------------0------------------- 1---------1--------------|
G|----------0-----0------------0-----0------------- ----0-----------------|
D|----0--------0---------0--------0----------2-----0h2--------------------|
A|-----------------------------------------3------------------3-----------|
E|--3-----------------3---------------------------------------------------|


C                        Am               C
What can I give that is all for you?
G                                             C
My heart's no good cuz its split in two
C                        Am               C
What can I give that is all for you?
G                           C
These arms are all I have

C                  Fmaj7         C
But I'll hold you like I do love you
C                  Fmaj7         C
But I'll hold you like I do. love. you.

C                        Am               C
What can I give that is all for you?
G                                             C
My heart's no good cuz its split in two
C                        Am               C
What can I give that is all for you?
G                           C
These arms are all I have

C                  Fmaj7         C
But I'll hold you like I do love you
C                  Fmaj7         C
But I'll hold you like I do. love. you.

C                  Fmaj7         C
But I'll hold you like I do love you
C                  Fmaj7         C
But I'll hold you like I do. love. you.    

Added On December 16th, 2013

SHARE

Comments

blog comments powered by Disqus

ADVERTISEMENT