The Raconteurs Tabs

Top Yourself

3 versions

TAB

            The Raconteurs - Top Yourself
Jack Whites slide - Open A EAEAC#E

Riff
|--(Play 3 Times)--|-------------------|
|------------------|-------------------|
|--9\3p0-3-3-5/7~--|--7-5-7-5-7-5-7-5--|
|--9\3p0-3-3-5/7~--|--7-5-7-5-7-5-7-5--|
|--9\3p0-3-3-5/7~--|--7-5-7-5-7-5-7-5--|
|------------------|-------------------|

Riff 2
|------(Play 3 Times)--------|-------------------|
|----------------------------|-------------------|
|--10/12-12-12-12-12-7-7-9~--|--7-5-7-5-7-5-7-5--|
|--10/12-12-12-12-12-7-7-9~--|--7-5-7-5-7-5-7-5--|
|--10/12-12-12-12-12-7-7-9~--|--7-5-7-5-7-5-7-5--|
|----------------------------|-------------------|

Bridge
|---------------------|
|---------------------|
|--5-5\---------------|
|--5-5\---------------|
|--5-5\--0h3-5-0-3-0--|
|---------------------|    

Added On December 16th, 2013

SHARE

Comments

blog comments powered by Disqus

VERSIONS

ADVERTISEMENT