The Rakes Tabs

Strasbourg

7 versions

TAB

            Strasbourg Tab by The Rakes


----------------------------------------------------------------------------
			  STRASBOURG-THE RAKES
----------------------------------------------------------------------------
Tabbed by:dave_mc_89
Email:d_a_v_erules@yahoo.co.uk

Tuning:Standard

Part 1
e|-------------|   ------------|   
B|-------------|   ------------|  
G|-------------|X4 ------------|X4 
D|-------------|   ------------|   
A|-------------|   -13-13-13-13|                                          
E|-12-12-12-12-|   -12-12-12-12|   

Repeat as necessary

Part 2 and Verse
Guitar 1 repeats part 1
Guitar 2

e|-----------------------------------------------------------------|
b|-----------------------------------------------------------------|
c|---------------------------------5-5-5-5-5-5-5-5-5-5-5-5-5-5-5-5-|
d|-5-5-5-5-5-5-5-5-5-5-5-5-5-5-5-5-5-5-5-5-5-5-5-5-5-5-5-5-5-5-5-5-|
a|-5-5-5-5-5-5-5-5-5-5-5-5-5-5-5-5-3-3-3-3-3-3-3-3-3-3-3-3-3-3-3-3-|
e|-3-3-3-3-3-3-3-3-3-3-3-3-3-3-3-3---------------------------------|

Repeat as necessary

Chorus

e|-----------|
b|-----------|
c|-5-5-------|X4
d|-5-5-3-3-5-|
a|-3-3-3-3-5-|
e|-----1-1-3-|    

Added On December 12th, 2013

SHARE

Comments

blog comments powered by Disqus