The Red Jumpsuit Apparatus Tabs

Angels Cry

4 versions

TAB

            -------------------------------------------------------------------------------
			     Angels Cry - The Red Jumpsuit Apparatus
-------------------------------------------------------------------------------
Tabbed by: gencc3
Email: gencc3@yahoo.com

Tuning: CGCFAD (Drop C)

Intro (clean):

Guitar 1 (x2) 0:00-0:14
D|-----------------------------------|
A|-----------------------------------|
F|-----------------------------------|
C|----4-4-----4-4-----4-4-----4-4----|
G|---5-5-5---5-5-5---5-5-5---5-5-5---|
C|--0-------0-------4-------5--------|

Guitar 1 (x2) 0:10-0:19
D|-----------------------------------|
A|-----------------------------------|
F|-----------------------------------|
C|----4-4-----4-4-----4-4-----4-4----|
G|---5-5-5---5-5-5---5-5-5---5-5-5---|
C|--0---------------4-------5--------|

Guitar 2 0:10-0:19
D|---------------------------------------------------|
A|---------------------------------------------------|
F|---------------------------7-6-9-11-11---6-4--7-6--|
C|--7-5-4-5-4---7-4---7-4----------------------------|
G|---------------------------------------------------|
C|---------------------------------------------------|

Verse 1 (clean):

Guitar 1 (x8) 0:19-0:57
D|-----------------------------------|
A|-----------------------------------|
F|-----------------------------------|
C|----4-4-----4-4-----4-4-----4-4----|
G|---5-5-5---5-5-5---5-5-5---5-5-5---|
C|--0-------0-------4-------5--------|

Chorus (distortion):

Guitar (0:58-1:16)
D|-----------------------------------------------------|
A|-----------------------------------------------------|
F|-----------------------------------------------------|
C|--0-0-0-0-0-0-0-0-0-0-0-0---9-9-9-9-9-9-9-9-9-9-9-9--|
G|--0-0-0-0-0-0-0-0-0-0-0-0---9-9-9-9-9-9-9-9-9-9-9-9--|
C|--0-0-0-0-0-0-0-0-0-0-0-0---9-9-9-9-9-9-9-9-9-9-9-9--|

(1:07-1:16)
D|-------------------------------------------------------|
A|-------------------------------------------------------|
F|-------------------------------------------------------|
C|--7-7-7-7-7-7-7-7-7-7-7-7---5-5-5-5-5-5---7-7-7-7-7-7--|
G|--7-7-7-7-7-7-7-7-7-7-7-7---5-5-5-5-5-5---7-7-7-7-7-7--|
C|--7-7-7-7-7-7-7-7-7-7-7-7---5-5-5-5-5-5---7-7-7-7-7-7--|

(1:17)
D|-----|
A|-----|
F|-----|
C|--0--|
G|--0--|
C|--0--|

Interlude:

Guitar (1:17-1:21)
D|-----------------------------------|
A|-----------------------------------|
F|-----------------------------------|
C|----4-4-----4-4-----4-4-----4-4----|
G|---5-5-5---5-5-5---5-5-5---5-5-5---|
C|--0-------0-------4-------5--------|

(1:22-1:26)
D|-----------------------------------|
A|-----------------------------------|
F|-----------------------------------|
C|----4-4-----4-4-----7-4-----7h9p7--|
G|---5-5-5---5-5-5---5-5-5---5-------|
C|--0-------0-------4-------5--------|

Verse 2:

Guitar 1 (x4) (1:27-1:46)
D|-----------------------------------|
A|-----------------------------------|
F|-----------------------------------|
C|----4-4-----4-4-----4-4-----4-4----|
G|---5-5-5---5-5-5---5-5-5---5-5-5---|
C|--0-------0-------4-------5--------|

Repeat Chorus 2x

Bridge:

Guitar 1 x3 (2:24-2:38)
D|---------------------------|
A|---------------------------|
F|---------------------------|
C|--0-0-0-0-0-0-4-4-4-5-5-5--|
G|--0-0-0-0-0-0-4-4-4-5-5-5--|
C|--0-0-0-0-0-0-4-4-4-5-5-5--|

(2:38-2:43)
D|---------------------------|
A|---------------------------|
F|----------------6666--7777-|
C|--0-0-0-0-0-0--------------|
G|--0-0-0-0-0-0---4444--5555-|
C|--0-0-0-0-0-0--------------|

(2:43-2:52)
D|-----------------------------------------------------|
A|-----------------------------------------------------|
F|-----------------------------------------------------|
C|--0-0-0-0-0-0-0-0-0-0-0-0---9-9-9-9-9-9-9-9-9-9-9-9--|
G|--0-0-0-0-0-0-0-0-0-0-0-0---9-9-9-9-9-9-9-9-9-9-9-9--|
C|--0-0-0-0-0-0-0-0-0-0-0-0---9-9-9-9-9-9-9-9-9-9-9-9--|

(2:53-3:02)
D|---------------------------------------------------|
A|---------------------------------------------------|
F|---------------------------------------------------|
C|--7-7-7-7-7-7-7-7-7-7-7-7---5-5--5-5---7-7-7-7-7-7-|
G|--7-7-7-7-7-7-7-7-7-7-7-7---5-5--5-5---7-7-7-7-7-7-|
C|--7-7-7-7-7-7-7-7-7-7-7-7---5-5--5-5---7-7-7-7-7-7-|

Chorus x2

End on
(3:41)
D|-----|
A|-----|
F|-----|
C|--0--|
G|--0--|
C|--0--|
(let ring)

The solo takes place at the second part of the bridge (2:43). However, it's kind of
and too tough for me to make out. This is pretty close I think. The guitars at the top might
just one guitar, but I couldn't tell. This probably isn't 100% correct so feel free to 
me and I'll make changes.

| /  slide up
| \  slide down
| h  hammer-on
| p  pull-off
| ~  vibrato
| +  harmonic
| x  Mute note
===============================================================================    

Added On December 16th, 2013

SHARE

Comments

blog comments powered by Disqus

VERSIONS

ADVERTISEMENT