The Red Jumpsuit Apparatus Tabs

Pen And Paper

1 versions

TAB

            Intro-

|------------------------------------------------------------------------|
|------------------------------------------------------------------------|
|-xx-5~------------------------------xx-5~-------------------------------|
|-xx-5~------------------------------xx-5~-------------------------------|
|-xx-3~------------------------------xx-3~-------------------------------|
|------------------------------------------------------------------------|

Verse-2x Palm Mute-
GtrI

|------------------------------------------------------------------|
|------------------------------------------------------------------|
|------------------------------------------------------------------|
|-5-5-5-5-5-5-5-5-5-5-5-5-5-5-5-5-5-5-5-5-5-5-5-5-5-5-5-5-5-5-5-5--|
|-3-3-3-3-3-3-3-3-3-3-3-3-3-3-3-3-3-3-3-3-3-3-3-3-3-3-3-3-3-3-3-3--|
|------------------------------------------------------------------|

|------------------------------------------------------------------|
|------------------------------------------------------------------|
|------------------------------------------------------------------|
|------------------------------------------------------------------|
|-3-3-3-3-3-3-3-3-3-3-3-3-3-3-3-3-3-3-3-3-3-3-3-3-3-3-3-3-3-3-3-3--|
|-3-3-3-3-3-3-3-3-3-3-3-3-3-3-3-3-3-3-3-3-3-3-3-3-3-3-3-3-3-3-3-3--|]


GtrII
|-------------------------------------------------------------------------|
|-------------------------------------------------------------------------|
|-4444/5-------------------------------5----------------------------------|
|--------5-5-5-5-5-5-5-5-5-5-5-5-5-5-5-5-5-5-5-5-5-5-5-5-5-5-5-5-5-5-5-5--|
|-2222/3-3-3-3-3-3-3-3-3-3-3-3-3-3-3-3-3-3-3-3-3-3-3-3-3-3-3-3-3-3-3-3-3--|
|-------------------------------------------------------------------------|


|-------------------------------------------------------------------------|
|-------------------------------------------------------------------------|
|-4444/5-9-9-9-9-9-9-9-9-9-9-7-7-7-7-7-7-7-7-7-7-7-x-9-x-10-x-9-x-4-4/5---|
|-------------------------------------------------------------------------|
|-2222/3-7-7-7-7-7-7-7-7-7-7-5-5-5-5-5-5-5-5-5-5-5-x-7-x-8--x-7-x-2-2/3---|
|-------------------------------------------------------------------------|


|------------------------------------------------------------------|
|------------------------------------------------------------------|
|------------------------------------------------------------------|
|-5-5-5-5-5-5-5-5-5-5-5-5-5-5-5-5-5-5-5-5-5-5-5-5-5-5-5-5-5-5-5-5--|
|-3-3-3-3-3-3-3-3-3-3-3-3-3-3-3-3-3-3-3-3-3-3-3-3-3-3-3-3-3-3-3-3--|
|------------------------------------------------------------------|


|-------------------------------------------------------------------------|
|-------------------------------------------------------------------------|
|-9-9-9-9-9-9-9-9-9-9-9-9-9-9-9-9-9-9-9-9-9-9-9-7-x-9-x-10-x-9-x-10-10-10-|
|-------------------------------------------------------------------------|
|-7-7-7-7-7-7-7-7-7-7-7-7-7-7-7-7-7-7-7-7-7-7-7-5-x-7-x-8--x-7-x-8--8--8--|
|-------------------------------------------------------------------------|

Don't cry to me no more...
|--------------------------------------------|
|--------------------------------------------|
|-5-5~-------5-55~-------------5~------------|
|-5-5~-------5-55~-------------5~------------|
|-3-3~-------3-33~-------------3~------------|
|--------------------------------------------|

Chorus-
|------------------------------------------------------------------------|
|------------------------------------------------------------------------|
|-5-5-5-5-5-5-5-5-5-5-5-5-5-5-5-5----------------------------------------|
|-5-5-5-5-5-5-5-5-5-5-5-5-5-5-5-5--3-3-3-3-3-3-3-3-3-3-3-3-3-3-3-3-3-----|2x
|-3-3-3-3-3-3-3-3-3-3-3-3-3-3-3-3--3-3-3-3-3-3-3-3-3-3-3-3-3-3-3-3-3-----|
|----------------------------------3-3-3-3-3-3-3-3-3-3-3-3-3-3-3-3-3-----|

GtrII
|-------------------------------------------------------------------------|
|-------------------------------------------------------------------------|
|-5-5-5-5-7-7-7-7-9-9-9-9-9/10-9-9-7-5-5-5-5-5-5-5-5/7\5-5-5-5-5-5-1010-9-|
|-------------------------------------------------------------------------|2x
|-3-3-3-3-5-5-5-5-7-7-7-7-7/8--7-7-5-3-3-3-3-3-3-3-3/5\3-3-3-3-3-3-8-8--7-|
|-------------------------------------------------------------------------|


Verse2-2x
|------------------------------------------------------------------|
|------------------------------------------------------------------|
|------------------------------------------------------------------|
|-5-5-5-5-5-5-5-5-5-5-5-5-5-5-5-5-5-5-5-5-5-5-5-5-5-5-5-5-5-5-5-5--|
|-3-3-3-3-3-3-3-3-3-3-3-3-3-3-3-3-3-3-3-3-3-3-3-3-3-3-3-3-3-3-3-3--|
|------------------------------------------------------------------|

|------------------------------------------------------------------|
|------------------------------------------------------------------|
|------------------------------------------------------------------|
|------------------------------------------------------------------|
|-3-3-3-3-3-3-3-3-3-3-3-3-3-3-3-3-3-3-3-3-3-3-3-3-3-3-3-3-3-3-3-3--|
|-3-3-3-3-3-3-3-3-3-3-3-3-3-3-3-3-3-3-3-3-3-3-3-3-3-3-3-3-3-3-3-3--|

Don't cry to me no more...
|--------------------------------------------|
|--------------------------------------------|
|-5-5~-------5-55~-------------5~------------|
|-5-5~-------5-55~-------------5~------------|
|-3-3~-------3-33~-------------3~------------|
|--------------------------------------------|

Repeat Chorus-

Bridge-2x
|-------------------------------------------------------------------|
|-------------------------------------------------------------------|
|---------------------------------5-5-5-5-5-5-5-5-5-5-5-5-5-5-5-5---|
|-7-7-7-7-7-7-7-7-7-7-7-7-7-7-7-7-5-5-5-5-5-5-5-5-5-5-5-5-5-5-5-5---|
|-7-7-7-7-7-7-7-7-7-7-7-7-7-7-7-7-3-3-3-3-3-3-3-3-3-3-3-3-3-3-3-3---|
|-7-7-7-7-7-7-7-7-7-7-7-7-7-7-7-7-----------------------------------|

|-------------------------------------------------------------------|
|-------------------------------------------------------------------|
|-------------------------------------------------------------------|
|-5-5-5-5-5-5-5-5-5-5-5-5-5-5-5-5-7-7-7-7-7-7-7-7-7-7-7-7-x-7-x-7---|
|-5-5-5-5-5-5-5-5-5-5-5-5-5-5-5-5-7-7-7-7-7-7-7-7-7-7-7-7-x-7-x-7---|
|-5-5-5-5-5-5-5-5-5-5-5-5-5-5-5-5-7-7-7-7-7-7-7-7-7-7-7-7-x-7-x-7---|

Chorus-
|------------------------------------------------------------------------|
|------------------------------------------------------------------------|
|-5~---------------------------------------------------------------------|
|-5~---------------------------3~----------------------------------------|
|-3~---------------------------3~----------------------------------------|
|------------------------------3~----------------------------------------|


GtrI
|---------------------------------------------------------------------|
|---------------------------------------------------------------------|
|-5---5---5---5---5---5---5---5---------------------------------------|
|-5---5---5---5---5---5---5---5----3---3---3---3---3---3---3---3--3---|
|-3---3---3---3---3---3---3---3----3---3---3---3---3---3---3---3--3---|
|----------------------------------3---3---3---3---3---3---3---3--3---|
GtrII
|-------------------------------------------------------------------------|
|-------------------------------------------------------------------------|
|-5-5-5-5-7-7-7-7-9-9-9-9-9/10-9-9-7-5-5-5-5-5-5-5-5/7\5-5-5-5-5-5-1010-9-|
|-------------------------------------------------------------------------|
|-3-3-3-3-5-5-5-5-7-7-7-7-7/8--7-7-5-3-3-3-3-3-3-3-3/5\3-3-3-3-3-3-8-8--7-|
|-------------------------------------------------------------------------|

Chorus-
|------------------------------------------------------------------------|
|------------------------------------------------------------------------|
|-5-5-5-5-5-5-5-5-5-5-5-5-5-5-5-5----------------------------------------|
|-5-5-5-5-5-5-5-5-5-5-5-5-5-5-5-5--3-3-3-3-3-3-3-3-3-3-3-3-3-3-3-3-3-----|
|-3-3-3-3-3-3-3-3-3-3-3-3-3-3-3-3--3-3-3-3-3-3-3-3-3-3-3-3-3-3-3-3-3-----|
|----------------------------------3-3-3-3-3-3-3-3-3-3-3-3-3-3-3-3-3-----|


|------------------------------------------------------------------------|
|------------------------------------------------------------------------|
|-5-5-5-5-5-5-5-5-5-5-5-5-5-5-5-5-----------------------------------5~---|
|-5-5-5-5-5-5-5-5-5-5-5-5-5-5-5-5--3-3-3-3-3-3-3-3-3-3-3-3--7---5---5~---|
|-3-3-3-3-3-3-3-3-3-3-3-3-3-3-3-3--3-3-3-3-3-3-3-3-3-3-3-3--7---5---3~---|
|----------------------------------3-3-3-3-3-3-3-3-3-3-3-3--7---5--------|



GtrII

|-------------------------------------------------------------------------|
|-------------------------------------------------------------------------|
|-5-5-5-5-7-7-7-7-9-9-9-9-9/10-9-9-7-5-5-5-5-5-5-5-5/7\5-5-5-5-5-5-1010-9-|
|-------------------------------------------------------------------------|
|-3-3-3-3-5-5-5-5-7-7-7-7-7/8--7-7-5-3-3-3-3-3-3-3-3/5\3-3-3-3-3-3-8-8--7-|
|-------------------------------------------------------------------------|

|-------------------------------------------------------------------------|
|-------------------------------------------------------------------------|
|-5-5-5-5-7-7-7-7-9-9-9-9-9/10-9-9-7-5-5-5-5-5-5-5-5/7\5-5-5-5-5-5-9-7--5-|
|-------------------------------------------------------------------------|
|-3-3-3-3-5-5-5-5-7-7-7-7-7/8--7-7-5-3-3-3-3-3-3-3-3/5\3-3-3-3-3-3-7-5--3-|
|-------------------------------------------------------------------------|

Pen & Paper Lyrics

this whole routeen is getting old
so am i
and so are you
my reputation lets me know
i can do whatever i want to
though it seems that you believe
you can do whatever it is you please,
not before, not before you wind up on your knees

dont cry to me no more
you like the way the people stare at you
and now you look so fake
just thought that you should know
your all the same
and when the curtain drops down
you’ll be replaced by something typical

you set yourself up to be sold
and thats ok cuz thats your role
maybe if you listen take its toll
will you do, no body wants you
though it seems that you believe
you can do whatever it is you please,
not before, not before you wind up on your knees

dont cry to me no more
you like the way the people stare at you
and now you look so fake
just thought that you should know
your not the same
and when the curtain drops down
you’ll be replaced by something typical

i know i stood so long beside you
and i know i should have left you right where i had found you
i know i stood so long beside you
and i know i should have left you right where i had found you

you like the way that people stare at you
now you look so fake
just thought that you should know
your all the same
and when the curtain drops down
you’ll be replaced by something typical

you like the way that people stare at you
now you look so fake
just thought that you should know
your all the same
and when the curtain drops down
you’ll be replaced by something typical    

Added On December 16th, 2013

SHARE

Comments

blog comments powered by Disqus

ADVERTISEMENT