The Rubens Tabs

Ill Surely Die

1 versions

TAB

            -------------------------------------------------------------------------------
                             I'll Surely Die - The Rubens
-------------------------------------------------------------------------------
Tabbed by:
E-mail:

Tuning: Standard

e|---------------------------------------------------------------------------|
B|---------------------------------------------------------------------------|
G|---------------------------------------------------------------------------|
D|---------------------------------------------------------------------------|
A|--------------0-3-5-3-5----------------------------------------------------|
E|----0-3-5-3-5-----------0-3-5-3-5-5p-3-0-----------------------------------|

e|---------------------------------------------------------------------------|
B|---------------------------------------------------------------------------|
G|---------------------------------------------------------------------------|
D|---------------------------------------------------------------------------|
A|--------------0-3-5-3-5-5p-3/7-5-3-5-3---------3-p0------------------------|
E|----0-3-5-3-5---------------------------5p-3-h5----------------------------|

Chorus :

e|--------------x-x-x-x-x-x--------------------------------------------------|
B|--------------x-x-x-x-x-x--------------------------------------------------|
G|--------------x-x-x-x-5-x--------------------------------------------------|
D|--------------7-5-4-3-5-7--------------------------------------------------|
A|--------------7-5-4-3-3-7--------------------------------------------------|
E|----0-3-5-3-5-5-3-2-1-x-5--------------------------------------------------|
Repeat
 
I cant figure out the solo but when i do ill put that up to. Have fun guys
************************************

| /   slide up
| \   slide down
| h   hammer-on
| p   pull-off
| ~   vibrato
| +   harmonic
| x   Mute note
| b   Bend
| pb  Pre-bend
| br  Bend release
| pbr Pre-bend release
| brb Bend release bend

************************************    

Added On December 16th, 2013

SHARE

Comments

blog comments powered by Disqus

ADVERTISEMENT