The Used Tabs

Watered Down

1 versions

TAB

            ==============================================================
                   Watered Down - The Used
==============================================================
Drop D - D A D G B E


Intro:
------------------6~----6~----6h7~------ 
-----7~----7~---------7~----7~----------
-7~7~----7~----7~--(7)~--(7)~-----------  x4
------(9)~--(9)~-(8)~--(8)~------------
----------------------------------------
----------------------------------------
(#) mean optional notes

Verse:
-----5~------5~-5~---|----|-------------------|----|
---7~---7~---7~---7~-|----|------5~--5~----5~-|----|
-7~-------7~---------|-x2-|----7~--7~----7~---|-x2-|
---------------------|----|--7~--------7~-----|----|
---------------------|----|-------------------|----|
---------------------|----|-------------------|----|
repeat each part twice and the whole thing 4 times.


Just Before Chorus:
---------3~-~----
--7~~~~----------
--7~~~~----------
--7~~~~----------
--5~~~~----------
--4~~~~----------


Chorus: (each chord 8 times, let last one ring)
---------------------------------------------------
---------------------------------------------------
---------------------------------------------------
-5------2------9------12------5------7------0~~----
-5------2------9------12------5------7------0~~----
-5------2------9------12------5------7------0~~----


Repeat Verse
Then the pre chorus chord and straight into 2nd chorus


2nd Chorus:
-----------------------------------------------------------
-----------------------------------------------------------
-----------------------------------------------------------
-5------2------9------12------5------7------9------12------
-5------2------9------12------5------7------9------12------
-5------2------9------12------5------7------9------12------

---------------------------------------------------
---------------------------------------------------
---------------------------------------------------
-5------2------9------12------5------7------0~~----
-5------2------9------12------5------7------0~~----
-5------2------9------12------5------7------0~~----


Bridge:
-----------------------------------------------------------
----------------------------------------------------------
----------------------------------------------------------
-9~-9-9-9--8~-8-8-8---5---------------------(0)~~~~~-------
-9~-9-9-9--8~-8-8-8---5-(x16)---------------(0)~~~~-------
-9~-9-9-9--8~-8-8-8---5---------------------(0)~~~~~-------
Repeat that 4 times;
2nd repeat the 5's are palm muted
4th repeat the 5 is a 0 let it ring



Repeat 2nd Chorus (now also being 3rd chorus

The Play Intro until fade out.

Done.    

Added On November 20th, 2015

SHARE

Comments

blog comments powered by Disqus

ADVERTISEMENT