Third Day Tabs

Rockstar

1 versions

TAB

            Rockstar Tab by Third Day


Rockstar
Third Day, Wire Album

I know you have probably been waiting for the perfect tab of this song, so here
it is.  Not as hard as most of you thought.  Very Fun song to play ,indeed.
I watched alot of live Wire to figure out the lead parts.  Paid close attention
when I saw them live also, enjoy brothers

Capo on 2nd Fret
Chorus					     x2
E|----------------3--3-3—-0h2-2-3-2-------------|
B|----3---2-h3----3--3-3--3-3-3-3-3---2-2-3-2---|
G|--4-4---4--4-4--0--0-0--0h2-2-------2-2-2-2---|
D|--4-4---4--4-4--0-------------------2---------|
A|--2-2---2--2-2----------------------0---------|
E|----------------3-----------------------------|
 
E|--3-3-3-3--3-3-3---2-2-2----------------------------0------3-3-3---|
B|--3-3-3-3--3-3-3---3-3-3-3-3--2-2-2-3-3-3-3-2-----0-0-0----3-3-3---|
G|--0-0-0-0--0-------4-4-4-4-4--2-2-2-2-2-2-2-2--0--1-1-1-1--0-0-0---|
D|--0----------------4-4---4-4--2-2-2------------0--2-2-2-2--0-------|
A|-------------------2----------0-------------------2-2-2-2----------|
E|--3-----------------------------------------------0--------3-------|

E|--------------------------------------|
B|-----3-----3-----3-------3------------|
G|---2-----2-----2----------------------|
D|-0-----2-----4-----5------(5)-4-2-0---|
A|--------------------------------------|
E|--------------------------------------|

Verse								x2
E|-----------------------------|--------------------------------|
B|-----------------------------|----------------------x3-3-2-0--|
G|-4-4--2h4-4-2-4-4--2h4-4-2-4-|--2-2--0h2-2-0-2-x-x--x2-2-2-0--|
D|-4-4--2h4-4-2-4-4--2h4-4-2-4-|--2-2--0h2-2-0-2-x-x---------0--|
A|-2-2--2-------2-2--2---------|--0-0--0------------------------|
E|-----------------------------|--------------------------------|

Mark plays			           both play
E|--------------------------------------|------------------------------|
B|------3-------3--------3---------3----|--2-2-2-2-2-3-3--3--xx3-2-0---|
G|----2---2---2---2----2---2-----2---2--|--2-2-2-2-2-2-2--2--xx2-2-2---|
D|--5-------4-------2--------0----------|--2-2-2-2---2-2--2------------|
A|--------------------------------------|--0-0-------------------------|
E|--------------------------------------|------------------------------|

Brad plays
 Pm--------------------------
E|-----------------------------------|
B|-----------------------------------|
G|-/55555--/4444--/2222--0000--------|
D|-----------------------------------|
A|-----------------------------------|
E|-----------------------------------|



2 nd chorus Mark play regular chorus
Brad plays (also power chords could be substituted for octave power chords)
                   Pm                pm--       x2
E|-------------------------------------------------|
B|-------------------------------------------------|
G|--------------------0----------------------------|
D|-4-4-4--4-4-4-------0--/7-7--/9--\7-----7-7-7--7-|
A|-0h2-2--0-2-0-x-2---2--/5-5--/7--\4--44-4h5h4--0-|
E|----------------3-3-3----------------------------|

E|---------------------------------------------------------|
B|---------------------------------------------------------|
G|---------------------------------------------------------|
D|-------------0-4-4-4----/7----2--------------------------|
A|-2---2-2-----0-2-2-2----/5----0----/7777-----/121212-----|
E|-2h3-3-3-2-3---------------------------------------------|


Bridge
E|---2-------2h3-2-0-----0---------|
B|---3-----3-3---3-3-----0----2----|
G|---4-----2-------------0----4----|
D|---4---0---------------2----2----|
A|-2-2-------------------2----4----|
E|---------------------0------2----|

At the end repeat chords E, G, D

E|----------------|
B|----------------|
G|-2h4p2p0-2-2----|
D|---------2-4----|
A|-----------5----|
E|----------------|    

Added On December 12th, 2013

SHARE

Comments

blog comments powered by Disqus

ADVERTISEMENT