Third Eye Blind Tabs

God Of Wine

2 versions

TAB

            God Of Wine Tab by Third Eye Blind


God of Wine by Third Eye Blind

Tabbed by: neverenough
email: cox147@aol.com

i think this is one of the coolest 3eB songs and i know that this tab does this great 
justice.

Tunning: d - b - g - d - a - e

intro & verses:

d-----------2--2------------------------------------------------------0------|
b----------------------------------------------------------------0h2-----2---|
g-----2--2--------2--2-----------4--4--2--2-------------2-----2--------------|
d--------------------------2--2----------------------2-----2-----------------|
a--0-------------------------------------------------------------------------|
e-----------------------0--------------------0--0s2--------------------------|

d-----------------------------------|
b----------------10--10-------------|
g--2---------------------7--7--7h9--|
d----------7--7---------------------|
a-----------------------------------|
e-----2s5---------------------------|

chorus:

you'll have to figure out the strumming on your own which should be pretty easy if you 
to the cd but this is the chord progression

d--0-----0--0-----0--0-|
b--3--2--0--0--2--0--0-|
g--2--2--7--6--2--7--6-| repeat this for "i can't keep it all together"
d--0--2--7--7--2--7--7-|        part of the chorus
a--0--0--0--0--0--0--0-|
e----------------------|

and then........

d------------|
b------------|
g--------7---|
d--2--4--7---|
a--2--4--5---|
e--0--2------|    

Added On December 12th, 2013

SHARE

Comments

blog comments powered by Disqus

VERSIONS

ADVERTISEMENT