Three Days Grace Tabs

Pain

9 versions

TAB

            Pain Tab by Three Days Grace


Pain
Artist: Three Days Grace
Song: Pain

Drop D tuning - D A D G B E


Intro:(0:00-0:05)
E|------0-------0------0-------0--|
B|-------0--------------0---------|
G|---12------12-----12-------12---|
D|-14------13-----12-------11-----|
A|--------------------------------|
D|--------------------------------|
Pain,with out love,pain can't get enough|

Intro Continued:(0:06-0:14)
E|---0--------0--------0--------0---------------0-|x1
B|-----0-------0--------0--------0-------0--------|
G|--12-------12------12-------12------12---12-----|
D|14-------13------12-------11-----10-------------|
A|------------------------------------------------|
D|------------------------------------------------|
Pain, like it rough 'cause I'd rather fell pain than nothing at all...|

Chorus:(0:15-0:27)
E|--------------------------------------------------------|
B|--------------------------------------------------------|
G|---------4-5-4-2----------------------4-5-4-2----2------|
D|-2--2----x-x-x-x----5----0----2--2----x-x-x-x----2----0-|
A|-2--2----2-3-2-0----5----0----2--2----2-3-2-0----0----0-|
D|-2--2---------------5----0----2--2--------------------0-|

E|--------------------------------------------------------------|x1
B|--------------------------------------------------------------|
G|---------4-5-4-2------------------------------------11-12-11--|
D|-2--2----x-x-x-x----5----0----12-12-12-12----0--0----x--x--x--|
A|-2--2----2-3-2-0----5----0----10-10-10-10----0--0----9-10--9--|
D|-2--2---------------5----0----10-10-10-10----0--0-------------|

Verse1:(0:28-0:53)
E|-----0--------0--------0--------0--|x4
B|-------0-------0--------0--------0-|
G|---12--------12------12-------12---|
D|-14--------13------12-------11-----|
A|-----------------------------------|
D|-----------------------------------|
1.Your sick of feeling down, your not the only one
2.I'll take you by the hand it 'ill show you a world you can understand
3.This life is filled with hurt when happiness, doesn't work
4.Trust me and take my hand when the lights go out you'll understand

Chorus:(0:54-1:19)
E|--------------------------------------------------------|
B|--------------------------------------------------------|
G|---------4-5-4-2----------------------4-5-4-2----2------|
D|-2--2----x-x-x-x----5----0----2--2----x-x-x-x----2----0-|
A|-2--2----2-3-2-0----5----0----2--2----2-3-2-0----0----0-|
D|-2--2---------------5----0----2--2--------------------0-|
 1.Pain(Painnn),without love. Pain (Painnnn)  Can't get enough
 2.Pain(Painnn),without love. Pain (Painnnn)  Can't get enough

E|--------------------------------------------------------------|x2
B|--------------------------------------------------------------|
G|---------4-5-4-2------------------------------------11-12-11--|
D|-2--2----x-x-x-x----5----0----12-12-12-12----0--0----x--x--x--|
A|-2--2----2-3-2-0----5----0----10-10-10-10----0--0----9-10--9--|
D|-2--2---------------5----0----10-10-10-10----0--0-------------|
1.Pain(Painnn),Like it rough 'cause I'd rather feel pain than nothing at all
2.Pain(Painnn),Like it rough 'cause I'd rather feel pain than nothing at all

Verse2:(1:20-1:39)
E|----0--------0--------0--------0--|x3
B|------0-------0--------0--------0-|
G|---12-------12------12-------12---|
D|-14-------13------12-------11-----|
A|----------------------------------|
D|----------------------------------|
1.--Nothing--
2.Anger, in agony are better than misery
3.Trust me, I've got a plan when the light go out you'll understand

Chorus:(1:40-2:06)
E|--------------------------------------------------------|
B|--------------------------------------------------------|
G|---------4-5-4-2----------------------4-5-4-2----2------|
D|-2--2----x-x-x-x----5----0----2--2----x-x-x-x----2----0-|
A|-2--2----2-3-2-0----5----0----2--2----2-3-2-0----0----0-|
D|-2--2---------------5----0----2--2--------------------0-|
 1.Pain(Painnn),without love. Pain (Painnnn)  Can't get enough
 2.Pain(Painnn),without love. Pain (Painnnn)  Can't get enough

E|--------------------------------------------------------------|x2
B|--------------------------------------------------------------|
G|---------4-5-4-2------------------------------------11-12-11--|
D|-2--2----x-x-x-x----5----0----12-12-12-12----0--0----x--x--x--|
A|-2--2----2-3-2-0----5----0----10-10-10-10----0--0----9-10--9--|
D|-2--2---------------5----0----10-10-10-10----0--0-------------|
1.Pain(Painnn),Like it rough 'cause I'd rather feel pain than nothing at all
2.Pain(Painnn),Like it rough 'cause I'd rather feel pain than

E|----------------------------------|x1
B|----------------------------------|
G|------------------------11-12-11--|
D|-12-12-12-12----0--0-----x--x--x--|
A|-10-10-10-10----0--0-----9-10--9--|
D|-10-10-10-10----0--0--------------|
 1.Rather fell pain.....

*Play chorus twice then play next line once.

Bridge:(2:07-2:30)
E|-----------------------------------------------|x4
B|-----------------------------------------------|
G|11-12-11-12-11-12-11-12-11--5-5-5-5--7-7-7-7---|
D|-9--9--9--9--9--9--9--9--9--5-5-5-5--7-7-7-7---|
A|----------------------------3-3-3-3--5-5-5-5---|
D|-----------------------------------------------|
1.I no, I no, I no, I no, that you're wounded
2.You no, You no, You no, You no, that I'm here to save you
3.You no, You no, You no, You no, I'm always here for you
4.I no, I no, I no, I no, that you'll thank me later

Vocal Fill:(2:31-2:45)
Pain, without love pain, can't get enough.
Pain, I like it rough 'cause I'd rather feel pain than nothing at all... 
--No Guitar--

Chorus:(2:46-3:09)
E|--------------------------------------------------------|
B|--------------------------------------------------------|
G|---------4-5-4-2----------------------4-5-4-2----2------|
D|-2--2----x-x-x-x----5----0----2--2----x-x-x-x----2----0-|
A|-2--2----2-3-2-0----5----0----2--2----2-3-2-0----0----0-|
D|-2--2---------------5----0----2--2--------------------0-|
 1.Pain(Painnn),without love. Pain (Painnnn)  Can't get enough
 2.Pain(Painnn),without love. Pain (Painnnn)  Can't get enough

E|--------------------------------------------------------------|x2
B|--------------------------------------------------------------|
G|---------4-5-4-2------------------------------------11-12-11--|
D|-2--2----x-x-x-x----5----0----12-12-12-12----0--0----x--x--x--|
A|-2--2----2-3-2-0----5----0----10-10-10-10----0--0----9-10--9--|
D|-2--2---------------5----0----10-10-10-10----0--0-------------|
1.Pain(Painnn),Like it rough 'cause I'd rather feel pain than nothing at all
2.Pain(Painnn),Like it rough 'cause I'd rather feel pain than nothing at all

Post Chorus:(3:10-3:16)
E|----------------------------------|x2
B|----------------------------------|
G|------------------------11-12-11--|
D|-12-12-12-12----0--0-----x--x--x--|
A|-10-10-10-10----0--0-----9-10--9--|
D|-10-10-10-10----0--0--------------|
1.Rather feel pain than nothing at all....
2.Rather feel pain....

Outro:(3:16-3:20)
E|-------------------------------|
B|-------------------------------|
G|11--12--11--12--11--12--11--12-|
D|-9---9---9---9---9---9---9---9-|
A|-------------------------------|
D|-------------------------------|

| /  slide up
| \  slide down
| h  hammer-on
| p  pull-off
| ~  vibrato
| +  harmonic
| x  Mute note

**Please Vote**    

Added On December 12th, 2013

SHARE

Comments

blog comments powered by Disqus

VERSIONS

ADVERTISEMENT