Throwdown Tabs

Baby Got Back

5 versions

TAB

            Baby Got Back Tab by Throwdown


Throwdown
"Baby Got Back"

Tuning: Normal
Distortion: Massivly Heavy

Riff 1             
|-----------------|
|-----------------|
|-----------------|
|-----------------|
|-0-0-3-1-1-1-3-1-|
|-0-0-3-1-1-1-3-1-|

Riff 2
|-----------------|
|-----------------|
|-----------------|
|-----7-5-5-5-7-5-|  
|-9-9-5-3-3-3-5-3-|
|-7-7-------------|

THE SONG ALTERNATES BETWEEN THESE TWO RIFFS!!! 



By: Brian LaMarre - s3xy l3m0n
Write to me if you have any questions or comments!    

Added On December 12th, 2013

SHARE

Comments

blog comments powered by Disqus

VERSIONS

ADVERTISEMENT