Tim Mcgraw Tabs

Where The Green Grass Grows

3 versions

TAB

            Where The Green Grass Grows Tab by Tim Mcgraw


Title:  Munster Rag (Instrumental)
Artist: Brad Paisley
Album:  Part II
Tabbed By Rob Ross

Intro:

E--------------------------------------------|
B--------------------------------------------|
G--------------------------------------------|
D--------------------------------------------|
A-------0-2-----0-2-----0-20----2-0----------|
E--0-2-3---0-2-3---0-2-3-------3----2-3------|

KEEP REPEATING THIS UNTIL THE BIG SOLO THEN GO BACK AND REPEAT AGAIN

The ending is different it goes like this:

E-------------------------------------------|
B-------------------------------------------|
G-------------------------------------------|
D----------7--------------------------------|
A-------6-7--8-7-5--5-5-7-------------------|
E--5-8-5-----------------0-0-2-2-4-5--------|

Hope you can play this It's fast and really difficult to play

If u can play it congratulations!!

enjoy    

Added On December 12th, 2013

SHARE

Comments

blog comments powered by Disqus

VERSIONS

ADVERTISEMENT