Titus Andronicus Tabs

The Dog

1 versions

TAB

            -------------------------------------------------------------------------------
                             THE DOG - Titus Andronicus
-------------------------------------------------------------------------------
Tabbed by:Tiger LI
E-mail:caffinatedninjasquirrels@gmail.com

Tuning: Standard
    
    E     B      C#    E   

e|--0-----2------4-----7-----------------------------------------------------|
B|--0-----4------6-----9-----------------------------------------------------|
G|--1-----4------6-----9-----------------------------------------------------|
D|--2-----4------6-----9-----------------------------------------------------|
A|--2-----2------4-----7-----------------------------------------------------|
E|--0------------------------------------------------------------------------|


Intro:

E E

Verse:

E

I've been waiting for a place to be alone now

                 B        C#
I always try to help you out

E                        B       E
And it seems to be the [duh] by now


A A

E

I've been waiting for a chance to be a [duh-duh]

                       B       C#
I could have been somebody by now

E            B             E
If I hadn't disappeared myself




Chorus:
E            B       C#       E
You and the dog and kids and me

E            B       C#       E
You and the dog and kids and me

E            C#      B        E
You and the dog and kids and me


B A


Repeat Verse

Repeat Chorus


Solo

This is a Work in Progress, so help me out if you can decipher the lyrics or 
figure out a better way to play it.    

Added On December 16th, 2013

SHARE

Comments

blog comments powered by Disqus

ADVERTISEMENT