Tocotronic Tabs

Jackpot

1 versions

TAB

            Tocotronic - Jackbot

Intro:
G-------------3-
D-----2-----1---    /x?
A---0---0-2-----
E-1-------------

Strophe und Refrain

F5
F5
e |---|---|---|---|---|
B |---|---|---|---|---|
G |---|---|---|---|---|
D |---|---|-x-|---|---|
A |---|---|-x-|---|---|
E |-x-|---|---|---|---|
C5
C5
e |---|---|---|---|---|
B |---|---|---|---|---|
G |---|---|---|---|-x-|
D |---|---|---|---|-x-|
A |---|---|-x-|---|---|
E |---|---|---|---|---|
G5
G5
e |---|---|---|---|---|
B |---|---|---|---|---|
G |---|---|---|---|---|
D |---|---|---|---|-x-|
A |---|---|---|---|-x-|
E |---|---|-x-|---|---|
A5
A5
e |---|---|---|---|---|
B |---|---|---|---|---|
G |---|-x-|---|---|---|
D |---|-x-|---|---|---|
A |---|---|---|---|---|
E |---|---|---|---|---|
G5
G5
e |---|---|---|---|---|
B |---|---|---|---|---|
G |---|---|---|---|---|
D |---|---|---|---|-x-|
A |---|---|---|---|-x-|
E |---|---|-x-|---|---|
/x? F5
F5
e |---|---|---|---|---|
B |---|---|---|---|---|
G |---|---|---|---|---|
D |---|---|-x-|---|---|
A |---|---|-x-|---|---|
E |-x-|---|---|---|---|
C5
C5
e |---|---|---|---|---|
B |---|---|---|---|---|
G |---|---|---|---|-x-|
D |---|---|---|---|-x-|
A |---|---|-x-|---|---|
E |---|---|---|---|---|
Du bist der Jackpot meines Lebens G5
G5
e |---|---|---|---|---|
B |---|---|---|---|---|
G |---|---|---|---|---|
D |---|---|---|---|-x-|
A |---|---|---|---|-x-|
E |---|---|-x-|---|---|
A5
A5
e |---|---|---|---|---|
B |---|---|---|---|---|
G |---|-x-|---|---|---|
D |---|-x-|---|---|---|
A |---|---|---|---|---|
E |---|---|---|---|---|
zugegeben: der Vergleich ist eher schief G5
G5
e |---|---|---|---|---|
B |---|---|---|---|---|
G |---|---|---|---|---|
D |---|---|---|---|-x-|
A |---|---|---|---|-x-|
E |---|---|-x-|---|---|
als eben F5
F5
e |---|---|---|---|---|
B |---|---|---|---|---|
G |---|---|---|---|---|
D |---|---|-x-|---|---|
A |---|---|-x-|---|---|
E |-x-|---|---|---|---|
G5
G5
e |---|---|---|---|---|
B |---|---|---|---|---|
G |---|---|---|---|---|
D |---|---|---|---|-x-|
A |---|---|---|---|-x-|
E |---|---|-x-|---|---|
doch wenn du lachst geh'n drei Sonnen auf G5
G5
e |---|---|---|---|---|
B |---|---|---|---|---|
G |---|---|---|---|---|
D |---|---|---|---|-x-|
A |---|---|---|---|-x-|
E |---|---|-x-|---|---|
A5
A5
e |---|---|---|---|---|
B |---|---|---|---|---|
G |---|-x-|---|---|---|
D |---|-x-|---|---|---|
A |---|---|---|---|---|
E |---|---|---|---|---|
G5
G5
e |---|---|---|---|---|
B |---|---|---|---|---|
G |---|---|---|---|---|
D |---|---|---|---|-x-|
A |---|---|---|---|-x-|
E |---|---|-x-|---|---|
Wir sind raus und wir sind stolz darauf F5
F5
e |---|---|---|---|---|
B |---|---|---|---|---|
G |---|---|---|---|---|
D |---|---|-x-|---|---|
A |---|---|-x-|---|---|
E |-x-|---|---|---|---|
C5
C5
e |---|---|---|---|---|
B |---|---|---|---|---|
G |---|---|---|---|-x-|
D |---|---|---|---|-x-|
A |---|---|-x-|---|---|
E |---|---|---|---|---|
G5
G5
e |---|---|---|---|---|
B |---|---|---|---|---|
G |---|---|---|---|---|
D |---|---|---|---|-x-|
A |---|---|---|---|-x-|
E |---|---|-x-|---|---|
A5
A5
e |---|---|---|---|---|
B |---|---|---|---|---|
G |---|-x-|---|---|---|
D |---|-x-|---|---|---|
A |---|---|---|---|---|
E |---|---|---|---|---|
G5
G5
e |---|---|---|---|---|
B |---|---|---|---|---|
G |---|---|---|---|---|
D |---|---|---|---|-x-|
A |---|---|---|---|-x-|
E |---|---|-x-|---|---|
/x? F5
F5
e |---|---|---|---|---|
B |---|---|---|---|---|
G |---|---|---|---|---|
D |---|---|-x-|---|---|
A |---|---|-x-|---|---|
E |-x-|---|---|---|---|
C5
C5
e |---|---|---|---|---|
B |---|---|---|---|---|
G |---|---|---|---|-x-|
D |---|---|---|---|-x-|
A |---|---|-x-|---|---|
E |---|---|---|---|---|
Du hast das Know how und ich dein Vertrauen G5
G5
e |---|---|---|---|---|
B |---|---|---|---|---|
G |---|---|---|---|---|
D |---|---|---|---|-x-|
A |---|---|---|---|-x-|
E |---|---|-x-|---|---|
A5
A5
e |---|---|---|---|---|
B |---|---|---|---|---|
G |---|-x-|---|---|---|
D |---|-x-|---|---|---|
A |---|---|---|---|---|
E |---|---|---|---|---|
G5
G5
e |---|---|---|---|---|
B |---|---|---|---|---|
G |---|---|---|---|---|
D |---|---|---|---|-x-|
A |---|---|---|---|-x-|
E |---|---|-x-|---|---|
wir werden das System durchschauen F5
F5
e |---|---|---|---|---|
B |---|---|---|---|---|
G |---|---|---|---|---|
D |---|---|-x-|---|---|
A |---|---|-x-|---|---|
E |-x-|---|---|---|---|
G5
G5
e |---|---|---|---|---|
B |---|---|---|---|---|
G |---|---|---|---|---|
D |---|---|---|---|-x-|
A |---|---|---|---|-x-|
E |---|---|-x-|---|---|
und wenn du lachst geh'n drei Sonnen auf G5
G5
e |---|---|---|---|---|
B |---|---|---|---|---|
G |---|---|---|---|---|
D |---|---|---|---|-x-|
A |---|---|---|---|-x-|
E |---|---|-x-|---|---|
A5
A5
e |---|---|---|---|---|
B |---|---|---|---|---|
G |---|-x-|---|---|---|
D |---|-x-|---|---|---|
A |---|---|---|---|---|
E |---|---|---|---|---|
G5
G5
e |---|---|---|---|---|
B |---|---|---|---|---|
G |---|---|---|---|---|
D |---|---|---|---|-x-|
A |---|---|---|---|-x-|
E |---|---|-x-|---|---|
Wir sind raus und wir sind stolz darauf This tab is from www.tocotronix.de

Added On December 16th, 2013

SHARE

Comments

blog comments powered by Disqus

ADVERTISEMENT