Tokio Hotel Tabs

Der Letzte Tag

5 versions

TAB

            Hi everyone!
This Tab  http://www.ultimate-guitar.com/tabs/t/tokio_hotel/der_letzte_tag_tab.htm  is 
me. But when i uploaded it, i haven't been registered yet. And now i've got some things 
change.

Intro:
E|----------------------| \
H|----------------------|  \
G|----------------------|   \
D|---4--4-2--------  ---|2x
A|--4--4-3--------------|  /
E|-2--2----3333330------| /

Verse 1:
E|----------------------| \
H|----------------------|  \
G|----------------------|   \
D|---4--4-2--------  ---|4x
A|--4--4-3--------------|  /
E|-2--2----3333330------| /

Bridge:
E|------------------------------------|
H|------------------------------------|
G|----------7-77-777---------77-7-777-|
D|-9-99-999-7-77-777-9-99-99-77-7-777-|
A|-9-99-999-5-55-555-9-99-99-55-5-555-|
E|-7-77-777----------7-77-77----------|

Chorus:
E|----------------------------------------|
H|----------------------------------------|
G|-11-11-11-11-7-7-7-7-14-14-149-9-9-9----|
D|-11-11-11-11-7-7-7-7-14-14-149-9-9-9----|
A|-9 -9 -9 -9 -5-5-5-5-12-12-127-7-7-7----|
E|----------------------------------------|

E|----------------------------------------|
H|----------------------------------------|
G|-11-11-11-11-7-7-7-7-9-9-9-914-14-14----|
D|-11-11-11-11-7-7-7-7-9-9-9-914-14-14----|
A|-9 -9 -9 -9 -5-5-5-5-7-7-7-712-12-12----|
E|----------------------------------------|

E|----------------------------------------|
H|----------------------------------------|
G|-11-11-11-11-7-7-7-7-14-14-149-9-9-9----|
D|-11-11-11-11-7-7-7-7-14-14-149-9-9-9----|
A|-9 -9 -9 -9 -5-5-5-5-12-12-127-7-7-7----|
E|----------------------------------------|


E|---------------------------------|
H|---------------------------------|
G|----------77777/9----------77777-|
D|-99999999-77777/9-99999999-77777-|
A|-99999999-55555/7-99999999-55555-|
E|-77777777---------77777777-------|

Verse 2:
E|----------------------| \
H|----------------------|  \
G|----------------------|   \
D|---4--4-2--------  ---|4x
A|--4--4-3--------------|  /
E|-2--2----3333330------| /

Bridge:
E|------------------------------------|
H|------------------------------------|
G|----------7-77-777---------77-7-777-|
D|-9-99-999-7-77-777-9-99-99-77-7-777-|
A|-9-99-999-5-55-555-9-99-99-55-5-555-|
E|-7-77-777----------7-77-77----------|

Chorus:
E|----------------------------------------|
H|----------------------------------------|
G|-11-11-11-11-7-7-7-7-14-14-149-9-9-9----|
D|-11-11-11-11-7-7-7-7-14-14-149-9-9-9----|
A|-9 -9 -9 -9 -5-5-5-5-12-12-127-7-7-7----|
E|----------------------------------------|

E|----------------------------------------|
H|----------------------------------------|
G|-11-11-11-11-7-7-7-7-9-9-9-914-14-14----|
D|-11-11-11-11-7-7-7-7-9-9-9-914-14-14----|
A|-9 -9 -9 -9 -5-5-5-5-7-7-7-712-12-12----|
E|----------------------------------------|

E|----------------------------------------|
H|----------------------------------------|
G|-11-11-11-11-7-7-7-7-14-14-149-9-9-9----|
D|-11-11-11-11-7-7-7-7-14-14-149-9-9-9----|
A|-9 -9 -9 -9 -5-5-5-5-12-12-127-7-7-7----|
E|----------------------------------------|


E|-------------------------------------------------|
H|-------------------------------------------------|
G|----------77777/9----------777/9\8---------------|        i don't exactly know how
D|-99999999-77777/9-99999999-777/9\8-8\7-7---------|        to play the last part of
A|-99999999-55555/7-99999999-555/7\6-8\7-5---------|        this
E|-77777777---------77777777---------6\5-5---------|

E|--------------------------------------------------------------------------------------------------------------|
H|--------------------------------------------------------------------------------------------------------------|
G|-11--11-11-7--7-7-14--149-9-9-9-------------------------------------------------------------------------------|
D|-11--11-11-7--7-7-14--149-9-9-9----                                        A|-9 --9 -9 -5--5-5-12--127-7-7-7--|
E|--------------------------------------------------------------------------------------------------------------|

E|--------------------------------------------------------------------------------------------------------------|
H|--------------------------------------------------------------------------------------------------------------|
G|-11--11-11-7--7-7-9-9-9-914--14-------------------------------------------------------------------------------|
D|-11--11-11-7--7-7-9-9-9-914--14----                                        A|-9 --9 -9 -5--5-5-7-7-7-712--12--|
E|--------------------------------------------------------------------------------------------------------------|

E|--------------------------------------------------------------------------------------------------------------|
H|--------------------------------------------------------------------------------------------------------------|
G|-11--11-11-7--7-7-14--149-9-9-9-------------------------------------------------------------------------------|
D|-11--11-11-7--7-7-14--149-9-9-9----                                        A|-9 --9 -9 -5--5-5-12--127-7-7-7--|
E|--------------------------------------------------------------------------------------------------------------|


E|---------------------------------------------------------                  H|--|
G|-11-11-11/1212/14-14-141414-141414\11--11-11/121212\11~9~----------------------|
D|-11-11-11/1212/14-14-141414-141414\11--11-11/121212\11~9~----------------------|
A|-9 -9 -9 /1010/12-12-121212-121212\9 --9 -9 /101010\9 ~7~----------------------|
E|-------------------------------------------------------------------------------|

Bridge:
E|------------------------------------|
H|------------------------------------|
G|----------7-77-777---------77-7-777-|
D|-9-99-999-7-77-777-9-99-99-77-7-777-|
A|-9-99-999-5-55-555-9-99-99-55-5-555-|
E|-7-77-777----------7-77-77----------|

Chorus:
E|----------------------------------------|
H|----------------------------------------|
G|-11-11-11-11-7-7-7-7-14-14-149-9-9-9----|
D|-11-11-11-11-7-7-7-7-14-14-149-9-9-9----|
A|-9 -9 -9 -9 -5-5-5-5-12-12-127-7-7-7----|
E|----------------------------------------|

E|----------------------------------------|
H|----------------------------------------|
G|-11-11-11-11-7-7-7-7-9-9-9-914-14-14----|
D|-11-11-11-11-7-7-7-7-9-9-9-914-14-14----|
A|-9 -9 -9 -9 -5-5-5-5-7-7-7-712-12-12----|
E|----------------------------------------|

E|----------------------------------------|
H|----------------------------------------|
G|-11-11-11-11-7-7-7-7-14-14-149-9-9-9----|
D|-11-11-11-11-7-7-7-7-14-14-149-9-9-9----|
A|-9 -9 -9 -9 -5-5-5-5-12-12-127-7-7-7----|
E|----------------------------------------|

E|---------------------------------|
H|---------------------------------|
G|----------77777/9----------77777-|
D|-99999999-77777/9-99999999-77777-|
A|-99999999-55555/7-99999999-55555-|
E|-77777777---------77777777-------|


Chorus:
E|----------------------------------------|
H|----------------------------------------|
G|-11-11-11-11-7-7-7-7-14-14-149-9-9-9----|
D|-11-11-11-11-7-7-7-7-14-14-149-9-9-9----|
A|-9 -9 -9 -9 -5-5-5-5-12-12-127-7-7-7----|
E|----------------------------------------|

E|----------------------------------------|
H|----------------------------------------|
G|-11-11-11-11-7-7-7-7-9-9-9-914-14-14----|
D|-11-11-11-11-7-7-7-7-9-9-9-914-14-14----|
A|-9 -9 -9 -9 -5-5-5-5-7-7-7-712-12-12----|
E|----------------------------------------|

E|----------------------------------------|
H|----------------------------------------|
G|-11-11-11-11-7-7-7-7-14-14-149-9-9-9----|
D|-11-11-11-11-7-7-7-7-14-14-149-9-9-9----|
A|-9 -9 -9 -9 -5-5-5-5-12-12-127-7-7-7----|
E|----------------------------------------|

E|-------------------------------------------------------------|
H|-------------------------------------------------------------|
G|-11-11-11/1212/14-14-141414-141414\11--11-11/121212\11~9~999-|
D|-11-11-11/1212/14-14-141414-141414\11--11-11/121212\11~9~999-|
A|-9 -9 -9 /1010/12-12-121212-121212\9 --9 -9 /101010\9 ~7~777-|
E|-------------------------------------------------------------|

E|---------------------------------------------------------|
H|---------------------------------------------------------|
G|-11-11-11/1212/14-14-141414-141414\11--11-11/121212\11-9-|
D|-11-11-11/1212/14-14-141414-141414\11--11-11/121212\11-9-|
A|-9 -9 -9 /1010/12-12-121212-121212\9 --9 -9 /101010\9 -7-
E|---------------------------------------------------------

E|-------------------------------------|
H|-------------------------------------|
G|----------77777/9----------777777777-|
D|-99999999-77777/9-99999999-777777777-|
A|-99999999-55555/7-99999999-555555555-|
E|-77777777---------77777777-----------|    

Added On December 16th, 2013

SHARE

Comments

blog comments powered by Disqus

VERSIONS

ADVERTISEMENT