Tokio Hotel Tabs

Ich Brech Aus

2 versions

TAB

            Title:   Ich brech aus                             
Artist:  Tokio Hotel

Standard Tuning (EADGBE)

Tab by: Norman Pr.
___________________________________________

[Main Riff]

     S S S S S S S S S S S S E  E   
E||--------------------------------|
B||--------------------------------|
G||--------------------------------|
D||--------------------------------|
A||--3-0-0-3-0-0-3-0-0-3-0-0-------|
E||--------------------------2--2--|

[Verse]

   E.  E.  E.  E.  Q     
|-----------------------|
|-----------------------|
|-----------------------|
|----------7------------|
|------7-------7--------|
|--5---------------2----|


[Chorus]

  E.  E.  E.  E.  Q       E.  E.  E.  E.  Q     
-----------------------|-----------------------|
-----------------------|-----------------------|
-----------------------|--7---7---7---7---7----|
--3---3---3---3---3----|--7---7---7---7---7----|
--3---3---3---3---3----|--5---5---5---5---5----|
--1---1---1---1---1----|--5---5---5---5---5----|


  E.  E.  E.  E.  Q       E.  E.  E.  E.  Q     
-----------------------|-----------------------|
-----------------------|-----------------------|
--5---5---5---5---5----|--7---7---7---7---7----|
--5---5---5---5---5----|--7---7---7---7---7----|
--3---3---3---3---3----|--5---5---5---5---5----|
--3---3---3---3---3----|--5---5---5---5---5----|


  E.  E.  E.  E.  Q       E.  E.  E.  E.  Q     
-----------------------|-----------------------|
-----------------------|-----------------------|
-----------------------|-----------------------|
--3---3---3---3---3----|--2---2---2---2---2----|
--3---3---3---3---3----|--2---2---2---2---2----|
--1---1---1---1---1----|--0---0---0---0---0----|


[Break]

  E.  E.  E.  E.  Q       E.  E.  E.  E.  Q     
-----------------------|-----------------------|
-----------------------|-----------------------|
--5---5---5---5---5----|--7---7---7---7---7----|
--5---5---5---5---5----|--7---7---7---7---7----|
--3---3---3---3---3----|--5---5---5---5---5----|
--3---3---3---3---3----|--5---5---5---5---5----|


  E.  E.  E.  E.  Q       E.  E.  E.  E.  Q     
-----------------------|-----------------------|
-----------------------|-----------------------|
--5---5---5---5---5----|--7---7---7---7---7----|
--5---5---5---5---5----|--7---7---7---7---7----|
--3---3---3---3---3----|--5---5---5---5---5----|
--3---3---3---3---3----|--5---5---5---5---5----|


  S S S S S S S S S S S S S S S S    S S S S S S S S H  Pause        
----------------------------------|---------------------------|
--6-5-5-5-5-5-6-5-5-5-1-1-1-1-1-1-|--6-5-5-5-5-5-5-1----------|
----------------------------------|---------------------------|
--3-2-2-2-2-2-3-2-2-2-2-0-0-0-0-0-|--3-2-2-2-2-2-2-0----------|
--3-2-2-2-2-2-3-2-2-2-2-0-0-0-0-0-|--3-2-2-2-2-2-2-0----------|
--1-0-0-0-0-0-1-0-0-0-------------|--1-0-0-0-0-0-0-0----------|


  S S S S S S S S S S S S S S S S    S S S S S S S S H  Pause       
----------------------------------|---------------------------|
--6-5-5-5-5-5-6-5-5-5-1-1-1-1-1-1-|--6-5-5-5-5-5-5-1----------|
----------------------------------|---------------------------|
--3-2-2-2-2-2-3-2-2-2-0-0-0-0-0-0-|--3-2-2-2-2-2-2-0----------|
--3-2-2-2-2-2-3-2-2-2-0-0-0-0-0-0-|--3-2-2-2-2-2-2-0----------|
--1-0-0-0-0-0-1-0-0-0-------------|--1-0-0-0-0-0-0-0----------|


  W               W               W               W                
---------------|---------------|---------------|---------------|
---------------|---------------|---------------|---------------|
---------------|--7------------|--5------------|--7------------|
--3------------|--7------------|--5------------|--7------------|
--3------------|--5------------|--3------------|--5------------|
--1------------|---------------|---------------|---------------|


Now you got the parts. Final step now is to know what to play when ;)
There you go:

Main Riff                        (8x)

Main Riff more quiet/less dist.  (1x)

Verse                            (4x)

Main Riff                        (2x)

Verse                            (4x)

Main Riff                        (2x)

Chorus                           (1x)

Main Riff                        (4x)

Main Riff more quiet/less dist.  (1x)

Verse                            (4x)

Main Riff                        (2x)

Verse                            (4x)

Main Riff                        (2x)

Chorus                           (1x)

Main Riff                        (4x)

Break                            (1x)

Chorus                           (1x)

Main Riff                        (4x)

Chorus                           (1x)

Main Riff                        (8x)




Duration Legend
---------------
W - whole
H - half
Q - quarter
E - 8th
S - 16th
T - 32nd
X - 64th
. - note dotted
|-n-|  - n-tuplets    

Added On December 16th, 2013

SHARE

Comments

blog comments powered by Disqus

VERSIONS

ADVERTISEMENT