Tokio Hotel Tabs

Nach Dir Komm Nichts

1 versions

TAB

            This is the way I play this song. I've only played this acoustically,
but I guess it sounds alright with an electric guitar. Listen to the
song to get the strumming right; it's easy :) The song is basically open
power chords.


Tune half-step down


Intro and verse:

  E     G     C     A
--0-----0-----0-----0-----|
--0-----0-----0-----0-----|
--1-----4-----9-----6-----|
--2-----5----10-----7-----|  x2
--2-----5----10-----7-----|
--0-----3-----8-----5-----|

Meine beste Sünde, geht durch die Tür.
Ich bin schwerverletzt, und suchtig nach ihr.
Ich fühl mich.

Besessen, und verloren.
Vergessen, wie nie geboren.
Zerfetz Dein Tagebuch.
Ich find mich nicht, auch wenn ich such denn.


Chorus:


  E     G     A     C
--0-----0-----0-----0-----|
--0-----0-----0-----0-----|
--1-----4-----6-----9-----|
--2-----5-----7----10-----| (last compass, don't play the final C)
--2-----5-----7----10-----|
--0-----3-----5-----8-----|


Nach Dir kommt nichts,
Unsern ersten Tag verfluch ich.
Nach Dir kommt nichts,
Alles Neue macht mich fertig.
Nach Dir kommt nichts, ich will das nicht.
Du bist und warst und wirst nie wieder alles sein.
Ich hasse dich.


Verse 2:

  E     G     C     A
--0-----0-----0-----0-----|
--0-----0-----0-----0-----|
--1-----4-----9-----6-----|
--2-----5----10-----7-----|
--2-----5----10-----7-----|
--0-----3-----8-----5-----|

Du bist wie ein Alptraum, der mich träumt.
Hab von Deinem Trip, den Absprung versäumt.
Ich bin.

Besessen, von Deinem Fluch.
Vergessen, hab ich versucht.
Zerfetz Dein Tagebuch.
Ich find mich nicht, auch wenn ich such den.


Chorus:


  E     G     A     C
--0-----0-----0-----0-----|
--0-----0-----0-----0-----|
--1-----4-----6-----9-----|
--2-----5-----7----10-----| (last compass, don't play the final C)
--2-----5-----7----10-----|
--0-----3-----5-----8-----|


Nach Dir kommt nichts,
Unsern ersten Tag verfluch ich.
Nach Dir kommt nichts,
Alles Neue macht mich fertig.
Nach Dir kommt nichts, ich will das nicht.
Du bist und warst und wirst nie wieder alles sein.
Ich hasse dich.


Bridge:

  E     G     A     C
--0-----0-----0-----0-----|
--0-----0-----0-----0-----|
--1-----4-----6-----9-----|
--2-----5-----7----10-----|
--2-----5-----7----10-----|
--0-----3-----5-----8-----|

Lass mich, verlass mich, endlich.
Ich hasse dich,
nach Dir kommt nichts.


Nach dir komm nichts
--------------------------------------0~--|
--------------------------------------0~--|
--------------------------------------6~--|
--------2------------5------------7-------|
-----2-----2------5----5------7-----------|
--0------------3----------5---------------|


Chorus:


  E     G     A     C
--0-----0-----0-----0-----|
--0-----0-----0-----0-----|
--1-----4-----6-----9-----|
--2-----5-----7----10-----| (last compass, don't play the final C)
--2-----5-----7----10-----|
--0-----3-----5-----8-----|


Nach Dir kommt nichts,
Unsern ersten Tag verfluch ich.
Nach Dir kommt nichts,
Alles Neue macht mich fertig.
Nach Dir kommt nichts, ich will das nicht.
Du bist und warst und wirst nie wieder alles sein.

Nach Dir kommt nichts,
Unsern ersten Tag verfluch ich.
Nach Dir kommt nichts,
Alles Neue macht mich fertig.
Nach Dir kommt nichts, ich will das nicht.
Du bist und warst und wirst nie wieder alles sein.
Ich hasse dich.

-----------

Enjoy :)

-Valecita    

Added On December 16th, 2013

SHARE

Comments

blog comments powered by Disqus

ADVERTISEMENT