Tommy Emmanuel Tabs

Angelina

2 versions

TAB

            Angelina Tab by Tommy Emmanuel


I am learning this song by ear because the guitar pro tab is confusing as hell, so if
are like me, and can't read the guitar pro tab, wait for me to finish this one. I will add
and more whenever i can, so bare with me.


Tuning is Dropped D

Side Notes :


(  h = hammer on  )

( / means to slide - example. 2/3 means put your finger on 2nd fret, pluck the string and slide to 3 )


e ---0------------------------0-|--------------------0-----0-------|
B --3-------2-----0----------3--|------2-----0-------0----3--------|
G -2-------2-----2-----2----2---|-----2-----2-----2--2---2---------|
D -------0-----0-----0-----2----|---0------0-----0-----------------|
A -----------------------0------|----------------------------------|
D -----0-----4----5-------------|-0-------4-----5-----5------------|


e -------------------------0-|------------------0---0h2----5-----0----|
B -----2------0-----0-----3--|-----2------0----3-----------2--3--2--3-|
G ----2------2-----2-----2---|----2----2--2---2---------------4-----4-|
D ---0------0-----0-----2----|---0----0---0-------------------------4-|
A ---------------------0-----|-----------------------------------1--2-|
D -0------4-----5------------|-0-----4----5---------------------------|

e -2-3-2--------------------|-0h2--5-----0-----0--0h2--3--2--3/5--0--2h3--0-|
B -------3-1-3-----------3--|------2--3-----3-------------------------------|
G -----------------2--1--0--|---------4--------0--0h2--4--2--4/6--0--2----1-|
D ---------------0----0-----|---------------3-------------------------------|
A -----------------------0--|------------1----------------------------------|
D -------------3------3-----|-----------------------------------------------|

e -----------------------------|
B ---------1/3--2--------------|
G -----1---2/4--2--------------|
D ---0-----3/5--2--------------|
A --------------0--------------|
D -2---------------------------|    

Added On December 12th, 2013

SHARE

Comments

blog comments powered by Disqus

VERSIONS

ADVERTISEMENT