Tragically Hip Tabs

Darkest One

1 versions

TAB

            Darkest One Tab by Tragically Hip


#-----------------------------------------------------------------------------#
#-- File created with Instab - http://www.pconline.com/~smcarey/instab.html --#
#-----------------------------------------------------------------------------#

Author/Artist: The Tragically Hip
Title: The Darkest One
Album: In Violet Light
Transcribed by: Rick S.
Email: ricksloukji@hotmail.com

Great song from the new album. Sounds great live.

------------------------------------------------------------------------------|
------------------------------------------------------------------------------|
---------4-----------2-----------7-----------4--------------------------------|
-----4h6---6-----2h4---4-----7h9---9-----4h6---6------------------------------|
------------------------------------------------------------------------------|
-0-0---------0-0---------0-0---------0-0--------------------------------------|
 Intro

------------------------------------------------------------------------------|
------------------------------------------------------------------------------|
------------------7-----------------------------------------------------------|
-----2----0---7h9-------------------------------------------------------------|
--0h2--0h2--------------------------------------------------------------------|
---------------------3\2\0----------------------------------------------------|
 Verse

------------------------------------------------------------------------------|
------------------------------------------------------------------------------|
-666-------4-----6------------------------------------------------------------|
-777--777--4--7--6--7---------------------------------------------------------|
-777--777--2--7--4--7---------------------------------------------------------|
-555--555-----5-----5---------------------------------------------------------|
 Pre-Chorus

------------------------------------------------------------------------------|
------------------------------------------------------------------------------|
-4---6--------------4---------------------------------------------------------|
-4-7-6-7------22222-4-7-------------------------------------------------------|
-2-7-4-7------22222-2-7-------------------------------------------------------|
---5---5------00000---5-------------------------------------------------------|
 Chorus


Structure :

Intro
Verse
Pre-Chorus
Chorus
Verse
Pre-Chorus
Chorus
Verse (w/solo)    

Added On December 12th, 2013

SHARE

Comments

blog comments powered by Disqus

ADVERTISEMENT