Transplants Tabs

Gangsters And Thugs

3 versions

TAB

            Gangsters And Thugs Tab by Transplants


-----------------------------------------------------------------
GANGSTERS AND THUGS - transplants
-----------------------------------------------------------------
Tabbed by: akbal260
Email: akbal0594@hotmail.com

new transplants single ... great song 



Tuning:standard

main rif
e|---------------------------------------------------------------|
B|--10-12-10-----------------------------------------------------|
G|-----------11-11-11-9------------------------------------------|
D|----------------------12-12------------------------------------|
A|---------------------------------------------------------------|
E|---------------------------------------------------------------|

e|---------------------------------------------------------------|
B|--10-12-10-----------------------------------------------------|
G|-----------11-11-11-9------------------------------------------|
D|----------------------12-12------------------------------------|
A|---------------------------------------------------------------|
E|---------------------------------------------------------------|

e|---------------------------------------------------------------|
B|---------------------------------------------------------------|
G|---------------------------------------------------------------|
D|--9-12-9-9-7-0-0-0---------------------------------------------|
A|---------------------------------------------------------------|
E|---------------------------------------------------------------|

second rif
e|---------------------------------------------------------------|
B|---------------------------------------------------------------|
G|---------------------------------------------------------------|
D|--0-0-0-0-0-0-0-0----------------------------------------------|
A|------------------0-0-0-0--------------------------------------|
E|--------------------------3-3-3-3------------------------------|

third rif
e|------|
B|------|
G|--7---|
D|--7---|
A|--5---|
E|------|    

Added On December 12th, 2013

SHARE

Comments

blog comments powered by Disqus

VERSIONS

ADVERTISEMENT