Traveling Wilburys Tabs

Tweeter And The Monkey Man

1 versions

TAB

            Traveling Wilburys – Tweeter and the Monkey Man

Riff 1:
|------------------|
|------------------|
|------------------|
|------------------|
|------3-----------|
|0-3/5----5-3-5-5--|

Riff 2:
|--------------------------|
|--------------------------|
|--------------------------|
|--------------------------|
|-------3-3----------------|
|-0-3-5-----5-5-3-3-0-0----|



Riff 1  D
D
e |---|-x-|---|---|---|
B |---|---|-x-|---|---|
G |---|-x-|---|---|---|
D |---|---|---|---|---|
A |---|---|---|---|---|
E |---|---|---|---|---|
D
D
e |---|-x-|---|---|---|
B |---|---|-x-|---|---|
G |---|-x-|---|---|---|
D |---|---|---|---|---|
A |---|---|---|---|---|
E |---|---|---|---|---|
Am
Am
e |---|---|---|---|---|
B |-x-|---|---|---|---|
G |---|-x-|---|---|---|
D |---|-x-|---|---|---|
A |---|---|---|---|---|
E |---|---|---|---|---|
Riff 1 D
D
e |---|-x-|---|---|---|
B |---|---|-x-|---|---|
G |---|-x-|---|---|---|
D |---|---|---|---|---|
A |---|---|---|---|---|
E |---|---|---|---|---|
D
D
e |---|-x-|---|---|---|
B |---|---|-x-|---|---|
G |---|-x-|---|---|---|
D |---|---|---|---|---|
A |---|---|---|---|---|
E |---|---|---|---|---|
Am
Am
e |---|---|---|---|---|
B |-x-|---|---|---|---|
G |---|-x-|---|---|---|
D |---|-x-|---|---|---|
A |---|---|---|---|---|
E |---|---|---|---|---|
Am
Am
e |---|---|---|---|---|
B |-x-|---|---|---|---|
G |---|-x-|---|---|---|
D |---|-x-|---|---|---|
A |---|---|---|---|---|
E |---|---|---|---|---|
G
G
e |---|---|-x-|---|---|
B |---|---|---|---|---|
G |---|---|---|---|---|
D |---|---|---|---|---|
A |---|-x-|---|---|---|
E |---|---|-x-|---|---|
Tweeter and the Monkey Man were hard up for cash F
F
e |-x-|---|---|---|---|
B |-x-|---|---|---|---|
G |---|-x-|---|---|---|
D |---|---|-x-|---|---|
A |---|---|-x-|---|---|
E |-x-|---|---|---|---|
Am
Am
e |---|---|---|---|---|
B |-x-|---|---|---|---|
G |---|-x-|---|---|---|
D |---|-x-|---|---|---|
A |---|---|---|---|---|
E |---|---|---|---|---|
They stayed up all night selling cocaine and hash G
G
e |---|---|-x-|---|---|
B |---|---|---|---|---|
G |---|---|---|---|---|
D |---|---|---|---|---|
A |---|-x-|---|---|---|
E |---|---|-x-|---|---|
To an undercover cop who had a sister named Jan F
F
e |-x-|---|---|---|---|
B |-x-|---|---|---|---|
G |---|-x-|---|---|---|
D |---|---|-x-|---|---|
A |---|---|-x-|---|---|
E |-x-|---|---|---|---|
Am
Am
e |---|---|---|---|---|
B |-x-|---|---|---|---|
G |---|-x-|---|---|---|
D |---|-x-|---|---|---|
A |---|---|---|---|---|
E |---|---|---|---|---|
For reasons unexplained she loved the Monkey Man. Am
Am
e |---|---|---|---|---|
B |-x-|---|---|---|---|
G |---|-x-|---|---|---|
D |---|-x-|---|---|---|
A |---|---|---|---|---|
E |---|---|---|---|---|
G
G
e |---|---|-x-|---|---|
B |---|---|---|---|---|
G |---|---|---|---|---|
D |---|---|---|---|---|
A |---|-x-|---|---|---|
E |---|---|-x-|---|---|
Tweeter was a boy scout before she went to Vietnam F
F
e |-x-|---|---|---|---|
B |-x-|---|---|---|---|
G |---|-x-|---|---|---|
D |---|---|-x-|---|---|
A |---|---|-x-|---|---|
E |-x-|---|---|---|---|
Am
Am
e |---|---|---|---|---|
B |-x-|---|---|---|---|
G |---|-x-|---|---|---|
D |---|-x-|---|---|---|
A |---|---|---|---|---|
E |---|---|---|---|---|
And found out the hard way, nobody gives a damn G
G
e |---|---|-x-|---|---|
B |---|---|---|---|---|
G |---|---|---|---|---|
D |---|---|---|---|---|
A |---|-x-|---|---|---|
E |---|---|-x-|---|---|
They knew that they found freedom just across that Jersey line F
F
e |-x-|---|---|---|---|
B |-x-|---|---|---|---|
G |---|-x-|---|---|---|
D |---|---|-x-|---|---|
A |---|---|-x-|---|---|
E |-x-|---|---|---|---|
Am
Am
e |---|---|---|---|---|
B |-x-|---|---|---|---|
G |---|-x-|---|---|---|
D |---|-x-|---|---|---|
A |---|---|---|---|---|
E |---|---|---|---|---|
So they hopped into a stolen car took Highway 99 Am
Am
e |---|---|---|---|---|
B |-x-|---|---|---|---|
G |---|-x-|---|---|---|
D |---|-x-|---|---|---|
A |---|---|---|---|---|
E |---|---|---|---|---|
Em
Em
e |---|---|---|---|---|
B |---|---|---|---|---|
G |---|---|---|---|---|
D |---|-x-|---|---|---|
A |---|-x-|---|---|---|
E |---|---|---|---|---|
And the walls came down All the way to hell Dm
Dm
e |-x-|---|---|---|---|
B |---|---|-x-|---|---|
G |---|-x-|---|---|---|
D |---|---|---|---|---|
A |---|---|---|---|---|
E |---|---|---|---|---|
Never saw them when their standing Am
Am
e |---|---|---|---|---|
B |-x-|---|---|---|---|
G |---|-x-|---|---|---|
D |---|-x-|---|---|---|
A |---|---|---|---|---|
E |---|---|---|---|---|
Never saw them when they fell riff 1, then D
D
e |---|-x-|---|---|---|
B |---|---|-x-|---|---|
G |---|-x-|---|---|---|
D |---|---|---|---|---|
A |---|---|---|---|---|
E |---|---|---|---|---|
D
D
e |---|-x-|---|---|---|
B |---|---|-x-|---|---|
G |---|-x-|---|---|---|
D |---|---|---|---|---|
A |---|---|---|---|---|
E |---|---|---|---|---|
Am
Am
e |---|---|---|---|---|
B |-x-|---|---|---|---|
G |---|-x-|---|---|---|
D |---|-x-|---|---|---|
A |---|---|---|---|---|
E |---|---|---|---|---|
Am
Am
e |---|---|---|---|---|
B |-x-|---|---|---|---|
G |---|-x-|---|---|---|
D |---|-x-|---|---|---|
A |---|---|---|---|---|
E |---|---|---|---|---|
G
G
e |---|---|-x-|---|---|
B |---|---|---|---|---|
G |---|---|---|---|---|
D |---|---|---|---|---|
A |---|-x-|---|---|---|
E |---|---|-x-|---|---|
The undercover cop never liked the Monkey Man F
F
e |-x-|---|---|---|---|
B |-x-|---|---|---|---|
G |---|-x-|---|---|---|
D |---|---|-x-|---|---|
A |---|---|-x-|---|---|
E |-x-|---|---|---|---|
Am
Am
e |---|---|---|---|---|
B |-x-|---|---|---|---|
G |---|-x-|---|---|---|
D |---|-x-|---|---|---|
A |---|---|---|---|---|
E |---|---|---|---|---|
Even back in childhood he wanted to see him in the can G
G
e |---|---|-x-|---|---|
B |---|---|---|---|---|
G |---|---|---|---|---|
D |---|---|---|---|---|
A |---|-x-|---|---|---|
E |---|---|-x-|---|---|
Jan got married at fourteen to a racketeer named Bill F
F
e |-x-|---|---|---|---|
B |-x-|---|---|---|---|
G |---|-x-|---|---|---|
D |---|---|-x-|---|---|
A |---|---|-x-|---|---|
E |-x-|---|---|---|---|
Am
Am
e |---|---|---|---|---|
B |-x-|---|---|---|---|
G |---|-x-|---|---|---|
D |---|-x-|---|---|---|
A |---|---|---|---|---|
E |---|---|---|---|---|
She made secret calls to the Monkey Man from a mansion on the hill Am
Am
e |---|---|---|---|---|
B |-x-|---|---|---|---|
G |---|-x-|---|---|---|
D |---|-x-|---|---|---|
A |---|---|---|---|---|
E |---|---|---|---|---|
G
G
e |---|---|-x-|---|---|
B |---|---|---|---|---|
G |---|---|---|---|---|
D |---|---|---|---|---|
A |---|-x-|---|---|---|
E |---|---|-x-|---|---|
It was out on thunder road Tweeter at the wheel F
F
e |-x-|---|---|---|---|
B |-x-|---|---|---|---|
G |---|-x-|---|---|---|
D |---|---|-x-|---|---|
A |---|---|-x-|---|---|
E |-x-|---|---|---|---|
Am
Am
e |---|---|---|---|---|
B |-x-|---|---|---|---|
G |---|-x-|---|---|---|
D |---|-x-|---|---|---|
A |---|---|---|---|---|
E |---|---|---|---|---|
They crashed into paradise you could hear them tires squeal G
G
e |---|---|-x-|---|---|
B |---|---|---|---|---|
G |---|---|---|---|---|
D |---|---|---|---|---|
A |---|-x-|---|---|---|
E |---|---|-x-|---|---|
The undercover cop pulled up said Everyone of you is a liar F
F
e |-x-|---|---|---|---|
B |-x-|---|---|---|---|
G |---|-x-|---|---|---|
D |---|---|-x-|---|---|
A |---|---|-x-|---|---|
E |-x-|---|---|---|---|
Am
Am
e |---|---|---|---|---|
B |-x-|---|---|---|---|
G |---|-x-|---|---|---|
D |---|-x-|---|---|---|
A |---|---|---|---|---|
E |---|---|---|---|---|
If you dont surrender now its gonna go down to the wire Am
Am
e |---|---|---|---|---|
B |-x-|---|---|---|---|
G |---|-x-|---|---|---|
D |---|-x-|---|---|---|
A |---|---|---|---|---|
E |---|---|---|---|---|
Em
Em
e |---|---|---|---|---|
B |---|---|---|---|---|
G |---|---|---|---|---|
D |---|-x-|---|---|---|
A |---|-x-|---|---|---|
E |---|---|---|---|---|
And the walls came down All the way to hell Dm
Dm
e |-x-|---|---|---|---|
B |---|---|-x-|---|---|
G |---|-x-|---|---|---|
D |---|---|---|---|---|
A |---|---|---|---|---|
E |---|---|---|---|---|
Never saw them when they're standing Am
Am
e |---|---|---|---|---|
B |-x-|---|---|---|---|
G |---|-x-|---|---|---|
D |---|-x-|---|---|---|
A |---|---|---|---|---|
E |---|---|---|---|---|
Never saw them when they fell riff 2 Am
Am
e |---|---|---|---|---|
B |-x-|---|---|---|---|
G |---|-x-|---|---|---|
D |---|-x-|---|---|---|
A |---|---|---|---|---|
E |---|---|---|---|---|
G
G
e |---|---|-x-|---|---|
B |---|---|---|---|---|
G |---|---|---|---|---|
D |---|---|---|---|---|
A |---|-x-|---|---|---|
E |---|---|-x-|---|---|
An ambulance rolled up a state trooper close behind F
F
e |-x-|---|---|---|---|
B |-x-|---|---|---|---|
G |---|-x-|---|---|---|
D |---|---|-x-|---|---|
A |---|---|-x-|---|---|
E |-x-|---|---|---|---|
Am
Am
e |---|---|---|---|---|
B |-x-|---|---|---|---|
G |---|-x-|---|---|---|
D |---|-x-|---|---|---|
A |---|---|---|---|---|
E |---|---|---|---|---|
Tweeter took his gun away and messed up his mind G
G
e |---|---|-x-|---|---|
B |---|---|---|---|---|
G |---|---|---|---|---|
D |---|---|---|---|---|
A |---|-x-|---|---|---|
E |---|---|-x-|---|---|
The undercover cop was left tied up to a tree F
F
e |-x-|---|---|---|---|
B |-x-|---|---|---|---|
G |---|-x-|---|---|---|
D |---|---|-x-|---|---|
A |---|---|-x-|---|---|
E |-x-|---|---|---|---|
Am
Am
e |---|---|---|---|---|
B |-x-|---|---|---|---|
G |---|-x-|---|---|---|
D |---|-x-|---|---|---|
A |---|---|---|---|---|
E |---|---|---|---|---|
Near the souvenir stand by the old abandoned factory G
G
e |---|---|-x-|---|---|
B |---|---|---|---|---|
G |---|---|---|---|---|
D |---|---|---|---|---|
A |---|-x-|---|---|---|
E |---|---|-x-|---|---|
Next day the undercover cop was hot in pursuit F
F
e |-x-|---|---|---|---|
B |-x-|---|---|---|---|
G |---|-x-|---|---|---|
D |---|---|-x-|---|---|
A |---|---|-x-|---|---|
E |-x-|---|---|---|---|
He was taking the whole thing personally Am
Am
e |---|---|---|---|---|
B |-x-|---|---|---|---|
G |---|-x-|---|---|---|
D |---|-x-|---|---|---|
A |---|---|---|---|---|
E |---|---|---|---|---|
He didn't care about the loot G
G
e |---|---|-x-|---|---|
B |---|---|---|---|---|
G |---|---|---|---|---|
D |---|---|---|---|---|
A |---|-x-|---|---|---|
E |---|---|-x-|---|---|
Jan had told him many times it was you to me who taught F
F
e |-x-|---|---|---|---|
B |-x-|---|---|---|---|
G |---|-x-|---|---|---|
D |---|---|-x-|---|---|
A |---|---|-x-|---|---|
E |-x-|---|---|---|---|
Am
Am
e |---|---|---|---|---|
B |-x-|---|---|---|---|
G |---|-x-|---|---|---|
D |---|-x-|---|---|---|
A |---|---|---|---|---|
E |---|---|---|---|---|
In Jersey anythings legal as long as you dont get caught Am
Am
e |---|---|---|---|---|
B |-x-|---|---|---|---|
G |---|-x-|---|---|---|
D |---|-x-|---|---|---|
A |---|---|---|---|---|
E |---|---|---|---|---|
Em
Em
e |---|---|---|---|---|
B |---|---|---|---|---|
G |---|---|---|---|---|
D |---|-x-|---|---|---|
A |---|-x-|---|---|---|
E |---|---|---|---|---|
And the walls came down All the way to hell Dm
Dm
e |-x-|---|---|---|---|
B |---|---|-x-|---|---|
G |---|-x-|---|---|---|
D |---|---|---|---|---|
A |---|---|---|---|---|
E |---|---|---|---|---|
Never saw them when they're standing Am
Am
e |---|---|---|---|---|
B |-x-|---|---|---|---|
G |---|-x-|---|---|---|
D |---|-x-|---|---|---|
A |---|---|---|---|---|
E |---|---|---|---|---|
Never saw them when they fell riff 1, then D
D
e |---|-x-|---|---|---|
B |---|---|-x-|---|---|
G |---|-x-|---|---|---|
D |---|---|---|---|---|
A |---|---|---|---|---|
E |---|---|---|---|---|
D
D
e |---|-x-|---|---|---|
B |---|---|-x-|---|---|
G |---|-x-|---|---|---|
D |---|---|---|---|---|
A |---|---|---|---|---|
E |---|---|---|---|---|
Am
Am
e |---|---|---|---|---|
B |-x-|---|---|---|---|
G |---|-x-|---|---|---|
D |---|-x-|---|---|---|
A |---|---|---|---|---|
E |---|---|---|---|---|
Am
Am
e |---|---|---|---|---|
B |-x-|---|---|---|---|
G |---|-x-|---|---|---|
D |---|-x-|---|---|---|
A |---|---|---|---|---|
E |---|---|---|---|---|
G
G
e |---|---|-x-|---|---|
B |---|---|---|---|---|
G |---|---|---|---|---|
D |---|---|---|---|---|
A |---|-x-|---|---|---|
E |---|---|-x-|---|---|
Someplace by Rahway prison they ran out of gas F
F
e |-x-|---|---|---|---|
B |-x-|---|---|---|---|
G |---|-x-|---|---|---|
D |---|---|-x-|---|---|
A |---|---|-x-|---|---|
E |-x-|---|---|---|---|
Am
Am
e |---|---|---|---|---|
B |-x-|---|---|---|---|
G |---|-x-|---|---|---|
D |---|-x-|---|---|---|
A |---|---|---|---|---|
E |---|---|---|---|---|
The undercover cop had cornered them said Boy you didn't think that this could last G
G
e |---|---|-x-|---|---|
B |---|---|---|---|---|
G |---|---|---|---|---|
D |---|---|---|---|---|
A |---|-x-|---|---|---|
E |---|---|-x-|---|---|
Jan jumped out of bed said There's someplace I gotta go F
F
e |-x-|---|---|---|---|
B |-x-|---|---|---|---|
G |---|-x-|---|---|---|
D |---|---|-x-|---|---|
A |---|---|-x-|---|---|
E |-x-|---|---|---|---|
Am
Am
e |---|---|---|---|---|
B |-x-|---|---|---|---|
G |---|-x-|---|---|---|
D |---|-x-|---|---|---|
A |---|---|---|---|---|
E |---|---|---|---|---|
She took a gun out of the drawer and said It's best if you don't know Am
Am
e |---|---|---|---|---|
B |-x-|---|---|---|---|
G |---|-x-|---|---|---|
D |---|-x-|---|---|---|
A |---|---|---|---|---|
E |---|---|---|---|---|
G
G
e |---|---|-x-|---|---|
B |---|---|---|---|---|
G |---|---|---|---|---|
D |---|---|---|---|---|
A |---|-x-|---|---|---|
E |---|---|-x-|---|---|
The undercover cop was found face down in a field F
F
e |-x-|---|---|---|---|
B |-x-|---|---|---|---|
G |---|-x-|---|---|---|
D |---|---|-x-|---|---|
A |---|---|-x-|---|---|
E |-x-|---|---|---|---|
Am
Am
e |---|---|---|---|---|
B |-x-|---|---|---|---|
G |---|-x-|---|---|---|
D |---|-x-|---|---|---|
A |---|---|---|---|---|
E |---|---|---|---|---|
The Monkey Man on the river bank using Tweeter as a shield G
G
e |---|---|-x-|---|---|
B |---|---|---|---|---|
G |---|---|---|---|---|
D |---|---|---|---|---|
A |---|-x-|---|---|---|
E |---|---|-x-|---|---|
Jan said to the Monkey Man I'm not fooled by Tweeters curl F
F
e |-x-|---|---|---|---|
B |-x-|---|---|---|---|
G |---|-x-|---|---|---|
D |---|---|-x-|---|---|
A |---|---|-x-|---|---|
E |-x-|---|---|---|---|
Am
Am
e |---|---|---|---|---|
B |-x-|---|---|---|---|
G |---|-x-|---|---|---|
D |---|-x-|---|---|---|
A |---|---|---|---|---|
E |---|---|---|---|---|
I knew him long before he ever became a Jersey girl Am
Am
e |---|---|---|---|---|
B |-x-|---|---|---|---|
G |---|-x-|---|---|---|
D |---|-x-|---|---|---|
A |---|---|---|---|---|
E |---|---|---|---|---|
Em
Em
e |---|---|---|---|---|
B |---|---|---|---|---|
G |---|---|---|---|---|
D |---|-x-|---|---|---|
A |---|-x-|---|---|---|
E |---|---|---|---|---|
And the walls came down.. All the way to hell.. Dm
Dm
e |-x-|---|---|---|---|
B |---|---|-x-|---|---|
G |---|-x-|---|---|---|
D |---|---|---|---|---|
A |---|---|---|---|---|
E |---|---|---|---|---|
Never saw them when they're standing Am
Am
e |---|---|---|---|---|
B |-x-|---|---|---|---|
G |---|-x-|---|---|---|
D |---|-x-|---|---|---|
A |---|---|---|---|---|
E |---|---|---|---|---|
Never saw them when they fell riff 1, then D
D
e |---|-x-|---|---|---|
B |---|---|-x-|---|---|
G |---|-x-|---|---|---|
D |---|---|---|---|---|
A |---|---|---|---|---|
E |---|---|---|---|---|
D
D
e |---|-x-|---|---|---|
B |---|---|-x-|---|---|
G |---|-x-|---|---|---|
D |---|---|---|---|---|
A |---|---|---|---|---|
E |---|---|---|---|---|
Am
Am
e |---|---|---|---|---|
B |-x-|---|---|---|---|
G |---|-x-|---|---|---|
D |---|-x-|---|---|---|
A |---|---|---|---|---|
E |---|---|---|---|---|
Am
Am
e |---|---|---|---|---|
B |-x-|---|---|---|---|
G |---|-x-|---|---|---|
D |---|-x-|---|---|---|
A |---|---|---|---|---|
E |---|---|---|---|---|
G
G
e |---|---|-x-|---|---|
B |---|---|---|---|---|
G |---|---|---|---|---|
D |---|---|---|---|---|
A |---|-x-|---|---|---|
E |---|---|-x-|---|---|
Now the town of Jersey City is quieting down again F
F
e |-x-|---|---|---|---|
B |-x-|---|---|---|---|
G |---|-x-|---|---|---|
D |---|---|-x-|---|---|
A |---|---|-x-|---|---|
E |-x-|---|---|---|---|
Am
Am
e |---|---|---|---|---|
B |-x-|---|---|---|---|
G |---|-x-|---|---|---|
D |---|-x-|---|---|---|
A |---|---|---|---|---|
E |---|---|---|---|---|
I'm sitting in a gambling club called the Lion's Den G
G
e |---|---|-x-|---|---|
B |---|---|---|---|---|
G |---|---|---|---|---|
D |---|---|---|---|---|
A |---|-x-|---|---|---|
E |---|---|-x-|---|---|
The TV set been blown up, every bit of it is gone F
F
e |-x-|---|---|---|---|
B |-x-|---|---|---|---|
G |---|-x-|---|---|---|
D |---|---|-x-|---|---|
A |---|---|-x-|---|---|
E |-x-|---|---|---|---|
Am
Am
e |---|---|---|---|---|
B |-x-|---|---|---|---|
G |---|-x-|---|---|---|
D |---|-x-|---|---|---|
A |---|---|---|---|---|
E |---|---|---|---|---|
Ever since the nightly news show that the Monkey Man was on Am
Am
e |---|---|---|---|---|
B |-x-|---|---|---|---|
G |---|-x-|---|---|---|
D |---|-x-|---|---|---|
A |---|---|---|---|---|
E |---|---|---|---|---|
G
G
e |---|---|-x-|---|---|
B |---|---|---|---|---|
G |---|---|---|---|---|
D |---|---|---|---|---|
A |---|-x-|---|---|---|
E |---|---|-x-|---|---|
I guess I'll go to Florida and get myself some sun F
F
e |-x-|---|---|---|---|
B |-x-|---|---|---|---|
G |---|-x-|---|---|---|
D |---|---|-x-|---|---|
A |---|---|-x-|---|---|
E |-x-|---|---|---|---|
Am
Am
e |---|---|---|---|---|
B |-x-|---|---|---|---|
G |---|-x-|---|---|---|
D |---|-x-|---|---|---|
A |---|---|---|---|---|
E |---|---|---|---|---|
There ain't no more opportunity here everythings been done G
G
e |---|---|-x-|---|---|
B |---|---|---|---|---|
G |---|---|---|---|---|
D |---|---|---|---|---|
A |---|-x-|---|---|---|
E |---|---|-x-|---|---|
Sometime I think of Tweeter, some time I think of Jan Am
Am
e |---|---|---|---|---|
B |-x-|---|---|---|---|
G |---|-x-|---|---|---|
D |---|-x-|---|---|---|
A |---|---|---|---|---|
E |---|---|---|---|---|
Sometime I think of nothing but the Monkey Man Am
Am
e |---|---|---|---|---|
B |-x-|---|---|---|---|
G |---|-x-|---|---|---|
D |---|-x-|---|---|---|
A |---|---|---|---|---|
E |---|---|---|---|---|
Em
Em
e |---|---|---|---|---|
B |---|---|---|---|---|
G |---|---|---|---|---|
D |---|-x-|---|---|---|
A |---|-x-|---|---|---|
E |---|---|---|---|---|
And the walls came down.. All the way to hell.. Dm
Dm
e |-x-|---|---|---|---|
B |---|---|-x-|---|---|
G |---|-x-|---|---|---|
D |---|---|---|---|---|
A |---|---|---|---|---|
E |---|---|---|---|---|
Never saw them when they're standing Am
Am
e |---|---|---|---|---|
B |-x-|---|---|---|---|
G |---|-x-|---|---|---|
D |---|-x-|---|---|---|
A |---|---|---|---|---|
E |---|---|---|---|---|
Never saw them when they fell

Added On December 16th, 2013

SHARE

Comments

blog comments powered by Disqus

ADVERTISEMENT