Trevor Hall Tabs

Green Mountain State

1 versions

TAB

            -------------------------------------------------------------------------------
                             Green Mountain State - Trevor Hall
-------------------------------------------------------------------------------
Tabbed by:Sergio Madrigal
E-mail:sergiomm7@me.com

Based on the "Chapter of the Forest" Live Event performance.

Tuning: Capo on the 3rd fret


Verse:
e|---------------------------------------------------------------------------|
B|--------0h1h3---------0h1h3---------0h1h3--------0h1h3---------------------|
G|------0-------------0------------0-------------0---------------------------|
D|---------------------------------------------------------------------------|
A|---------------------------------------------------------------------------|
E|---3-----------3------------0-------------0--------------------------------|

"And it has always......................always"
e|---------------------------------------------------------------------------|
B|-----------0--------------0------------0-----------------------------------|
G|-----------0--------------0------------0-----------------------------------|
D|---------------------------------------------------------------------------|
A|---------------------------------------3-----------------------------------|
E|-----------3--------------0------------------------------------------------|

And then that awesome loud part:(listen to the song for the right rhythm)
e|---0-0-0-0-0-0---0-0-0-0-0-0-----------------------------------------------|
B|---0h1-0h1-3-3---0h1-0h1-3-3-----------------------------------------------|
G|---0-0-0-0-0-0---0-0-0-0-0-0-----------------------------------------------|
D|---0-0-0-0-0-0---2-2-2-2-2-2-----------------------------------------------|
A|---2-2-2-2-2-2---2-2-2-2-2-2-----------------------------------------------|
E|---3-3-3-3-3-3-------------------------------------------------------------|


Jai Ma!

************************************

| /   slide up
| \   slide down
| h   hammer-on
| p   pull-off
| ~   vibrato
| +   harmonic
| x   Mute note
| b   Bend
| pb  Pre-bend
| br  Bend release
| pbr Pre-bend release
| brb Bend release bend

************************************    

Added On June 23rd, 2014

SHARE

Comments

blog comments powered by Disqus

ADVERTISEMENT