Trews Tabs

Every Inambition

2 versions

TAB

            Every Inambition Tab by Trews


Song - The Trews - "Every Inambition" (intro)
Tabbed By - Jeff Kingsbury
E-Mail - valueshere@hotmail.com


e|---------------------------------------------------------------------------|
B|---------------------------------------------------------------------------|
G|---------------------------------------------------------------------------|
D|--7-7-/5-5-----------------------------------------------------------------|
A|--7-7------7-5-------------------------------------------------------------|
E|--5-5----------8-----------------------------------------------------------|


Chorus
e|---------------------------------------------------------------------------|
B|-------------------8-8-8---------------------------------------------------|
G|----------7-7-7----7-7-7---7-7-7-------------------------------------------|
D|---7-7----7-7-7----5-5-5---7-7-7---7-7-7-----------------------------------|
A|---7-7----5-5-5------------5-5-5---7-7-7-----------------------------------|
E|---5-5-----------------------------5-5-5-----------------------------------|    

Added On December 12th, 2013

SHARE

Comments

blog comments powered by Disqus

VERSIONS

ADVERTISEMENT