Tronic Tabs

Sexo Y Rock

1 versions

TAB

            sexo,juays,rock,sanpedros y weaas xD

taabs by Raper De Eleii and  NaNohoo Volaas Dispersas 

-afinacion standar 

-blend con los dedos no vibrato ;)

Intros
e-------------------------------------------------------------------------|
B-------------------------------------------------------------------------|
G-9-9-9--12-10-9-9-9-7-10-9-9-9-12-10-7-5-4-12-x-12-x-12-x-11-x-11-9-9-9--|
D-------------------------------------------------------------------------|
A-7-7-7--10-8--7-7-7-5-8--7-7-7-10-8--5-3-2-10-x-10-x-10-x-8-x--8--7-7-7--|
E-------------------------------------------------------------------------|

versos y wea

e------------------------------------------|
B------------------------------------------|
G------------------------------------------|
D-7-9--------------------------------------|
A-----10-10-10-10-10--10-10 -9-9-9--7-9-7--|
E------------------------------------------|

e-------------------------|
B-------------------------|
G-9-9-9-9-5-5-5-5-7-7-7-7-|
D-9-9-9-9-5-5-5-5-7-7-7-7-|
A-7-7-7-7-3-3-3-3-5-5-5-5-|
E-------------------------|

pre-koro

e------------------------------|
B------------------------------|
G-10-10-10-10-7-7-7-7-5-5-5-5--|
D-10-10-10-10-7-7-7-7-5-5-5-5--|
A-8---8--8--8-5-5-5-5-3-3-3-3--|
E------------------------------|



koro guitarra1
e------------------------------|
B------------------------------|
G----10-10-10------------------|
D----10-10-10-10-10-10-12-12---|
A-----8--8--8-10-10-10-12-12---|
E--------------8--8--8-10-10---|

koro guitarra 2
e------------------------------|
B------------------------------|
G--10-10-10-10-5-5-5-5-7-7-7-7-|
D--10-10-10-10-5-5-5-5-7-7-7-7-|
A---8--8--8-8--3-3-3-3-5-5-5-5-|
E------------------------------|

Great Solohoo By Raper De Eleii

e--------------------------------|
B-6-6-6-6-5--------5----------5--|
G-----------5--5-7---7--5-5-7----|
D--------------------------------|
A--------------------------------|
E--------------------------------|

e------------5---8--7--5---------------|
B-6-5------5---5---------8-6-5-5-5-----|
G-----7-5--------------------------5---|
D--------------------------------------|
A--------------------------------------|
E--------------------------------------|

e---------------13-12-13-12-13-12-------|
B-----5-6--6-5--------------------15-13-|
G-5-7-----------------------------------|
D---------------------------------------|
A---------------------------------------|
E---------------------------------------|

                Bend Bend Bend  
e-------------|----------------13-------13-|
B-15-13-15-13-|-15---15---15---15-15-/13---|
G-------------|----------------------------|
D-------------|----------------------------|
A-------------|----------------------------|
E-------------|----------------------------|

e----------12-15---13-13-13-12-13-12-13-12-|
B-13-13-15---------------------------------|
G------------------------------------------|
D------------------------------------------|
A------------------------------------------|
E------------------------------------------|    

Added On December 16th, 2013

SHARE

Comments

blog comments powered by Disqus

ADVERTISEMENT