Tupac Shakur Tabs

Changes

4 versions

TAB

            Changes Tab by Tupac Shakur


TUPAC-CHANGES 
VERSE
E|--------8-8-7--5-3-5-7-3---3-----5--5--3--|
B|--10-12-8---8------7---5-5-3-5-7-7--5--3--|
G|--------9---9------7---5---4-----7--7--5--|
D|------------------------------------------|
A|------------------------------------------|
E|------------------------------------------|

CHORUS
E|------3-----0----------|
B|----3-----1------------|
G|--0-----2---------0----|
D|----------------2------|
A|--------------3--------|
E|-----------------------|







peace    

Added On December 12th, 2013

SHARE

Comments

blog comments powered by Disqus

VERSIONS

ADVERTISEMENT