Ty Segall Tabs

You Make The Sun Fry

1 versions

TAB

            Verse - Chords in verse are power chords and played like this (listen to the song to get rhythm):

C-

e|---------------------------------------------------------------------------|
B|---------------------------------------------------------------------------|
G|---------------------------------------------------------------------------|
D|---------------------------------------------------------------------------|
A|----10-10-12-10------------------------------------------------------------|
E|----8--8--8--8-------------------------------------------------------------|


C (8th fret), Bb (6th fret), Ab (4th fret), F (1st fret), Ab (4th fret);

Chorus -

G, F, C (full barred major chords, listen for rhythm)  

Bb, A, Ab, G; (power chords, similar to verse)

Solo - Over Verse Chords


e|---------------------------------------------------------------------------|
B|---------------------------------------------------------------------------|
G|---9-8-9-8-9-8----7b8-7b8-7b8----7b8-7b8-7b8----7b8-7b8--------------------|
D|---------------10-------------10-------------10---------10-----------------|
A|---------------------------------------------------------------------------|
E|---------------------------------------------------------------------------|

e|---------------8-11--11-11b13-11b13-13-8--------8-------8-------8-------8--|
B|----------8-10---------------------------11b13----11b13---11b13---11b13----|
G|------7-9------------------------------------------------------------------|
D|---10----------------------------------------------------------------------|
A|---------------------------------------------------------------------------|
E|---------------------------------------------------------------------------|

e|---------------------------------------------------------------------------|
B|---------------------------------------------------------------------------|
G|---10b11---10b11-10b11-10-8------------------------------------------------|
D|----------------------------10---------------------------------------------|
A|---------------------------------------------------------------------------|
E|---------------------------------------------------------------------------|



etc...    

Added On December 31st, 2013

SHARE

Comments

blog comments powered by Disqus

ADVERTISEMENT