Tyler Ward Tabs

Payphone

1 versions

TAB

            Tyler Ward uses these chords in a lot of his songs, so if you're ever wondering...yep. 
try these out.
STANDARD TUNING

Chords used throughout the whole song:

e|----0----0----0----0------------------------------------|
B|----0----0----0----0------------------------------------|
G|----2----1----6----4------------------------------------|
D|----2----2----6----4------------------------------------|
A|----0----2----4----2------------------------------------|
E|----x----x----x----x------------------------------------|


Then the little solo goes a little something like this:
(Hit each one of these notes three times)
e|--------------------------------------------------------|
B|--------------------------------------------------------|
G|15-14-17-14-15-14-12-12-14-12-10------------------------|
D|--------------------------------------------------------|
A|--------------------------------------------------------|
E|--------------------------------------------------------|

There ya go, enjoy amigos.    

Added On December 16th, 2013

SHARE

Comments

blog comments powered by Disqus

ADVERTISEMENT