Tyondai Braxton Tabs

Disintegrating Reels

1 versions

TAB

            This songs tuning varies. It's hard to tell if I'm slightly out of tune, or if Ty's
guitar is. He uses effects to get that tin-sound. Now, this may be incorrect... But this is
what I got out of it. Also, the timings are slightly odd. If anyone has any suggestions 
on whether I'm correct or not, inform me! Via email (pablodeglos@yahoo.com) or
Ultimate-Guitar account!

Tyondai Braxton's Official Website: Music, date, tours, events:
http://www.tyondaibraxton.com/

First Half: Rhythm
e|---------------------------------|
B|----0----------------------------|
G|---0-2---------------------------|
D|--2------------------------------|
A|-3-------------------------------|
E|0--------------------------------|

Second Half: Rhythm
e|---------------------------------|
B|------------------------------0--|
G|-----------------------------0-2-|
D|-2--2----2---2--2--2----2---2----|
A|---------------------------3-----|
E|---0--0-----------0--0----0------|    

Added On December 16th, 2013

SHARE

Comments

blog comments powered by Disqus

ADVERTISEMENT