Ultima Thule Tabs

Frkastad Och Frnekad

1 versions

TAB

            Lätt som en plätt
|------------------------------------------------------------------------------|
|------------------------------------------------------------------------------|
|--5---8-----------------------------------------------------------------------|
|--5-6-8-8--x 2-intro----------------------------------------------------------|
|--3-6-6-8-------------3333333-------6666666---------8h10~-x 2-vers------------|
|----4---6--------------------4444444-------6666666----------------------------|

|------------------------------------------------------------------------------|
|---------------------------Paria,Paria,oberörbar....--------------------------|
|--5---8----------5-----8------------------------------------------------------|
|--5-6-8-8--x 2---5--6--8--8--x 2 refräng -------------------------------------|
|--3-6-6-8--------3--6--6--8---------------------------------------------------|
|----4---6-----------4-----6---------------------------------------------------|

|------------------------------------------------------------------------------|
|------------------------------------------------------------------------------|
|------------------------------------------------------------------------------|
|---8h101010101010-8h101010101010-8h10-1313-12---------------------------------|
|------------------------------------------------------------------------------|
|------------------------------------------------------------------------------|    

Added On December 16th, 2013

SHARE

Comments

blog comments powered by Disqus

ADVERTISEMENT