Ultima Thule Tabs

Svea Rike

1 versions

TAB

            Svea Rike By:Ultima Thule.

Lead:

E|--10-----------------------10----------------------------|
B|------11--10--8----------------11--10--8-------------10--|
G|-----------------10--9--------------------10--9--10------|
D|------------------------7--------------------------------|
A|---------------------------------------------------------|
E|---------------------------------------------------------|

Main riff:
   D                               C               A
E|-----------------------------------------------------------------|
B|-----------------------------------------------------------------|
G|-2-2-2-2-2-2-2-2-2-2-2-2-2-2-2-2---------------------------------|
D|-0-0-0-0-0-0-0-0-0-0-0-0-0-0-0-0-5-5-5-5-5-5-5-5-2-2-2-2-2-2-2-2-|
A|---------------------------------3-3-3-3-3-3-3-3-0-0-0-0-0-0-0-0-|
E|-----------------------------------------------------------------|
   . . . . . . . . . . . . . . . . . . . . . . . . . . . . . . . .

Chorus:
   F     D     F  A  D
E|-------------------------|
B|-------3-----------3-----|
G|-------2--------2--2-----|
D|-3-----0-----3--2--0-----|
A|-3-----------3--0--------|
E|-1-----------1-----------|
Let all chords ring.


By:themechanix100    

Added On December 16th, 2013

SHARE

Comments

blog comments powered by Disqus

ADVERTISEMENT