Under A Nightmare Tabs

Beautiful Night To Die

1 versions

TAB

            Beautiful Night To Die Tab by Under A Nightmare


be shure and tune to C# so this sounds right

* = PALM MUTE

intro and chorus
E------------------------------------------------------------------|repeat this
B------------------------------------------------------------------|for about
G----------------------------------------------------------------7-| times i
D--------------------------------7---------------------------------|think and
A--10-------------8--------------5-5-5-5-5-5-5-5-5-5-5-5-5-5-5-----|on last
E--8-8-8-8-8-8-8--6-6-6-6-6-6-6------------------------------------|time let
     * * * * * *    * * * * * *    * * * * * * * * * * * * * *   the last
verse 1 and 2                                                    note ring
E--------------------------------------------------------------------------|out, wile
B----------------------------------------------------------------1---------|st guitar
G--------------------------------------------------------------------------|tears into
D-7-7-7-7-7-7--10-10-10-10-10-10-------------------------------------------|verse riff.
A-5-5-5-5-5-5--8--8--8--8--8--8--10-10-10-10-10-10--7-7-7-7-7-7--after 1st-|
E--------------------------------8--8--8--8--8--8---5-5-5-5-5-5------------|guitar
                                                                 finishes
                                                                 verse riff
                                                                 1 time
                                                                 both
                                                                 guitars
                                                                 come in.    

Added On December 12th, 2013

SHARE

Comments

blog comments powered by Disqus

ADVERTISEMENT