Underoath Tabs

A Love So Pure

1 versions

TAB

            Underoath
  A Love So Pure
  Act of Depression

 ok. awesome song. awesome band. i think its the only tab for this song too.
 so here goes....

|-----------------------------------|
|-----------------------------------|
|-----------------------------------|
|-----7-8-7-----------7-8-7---------|
|-5-6-------6-5-6-5-6-------6-5-6---|
|-----------------------------------|
  . . . . . . . . . . . . . . . .

|-----------------------------------|
|-----------------------------------|
|-----------------------------------|
|-----6-7-6-----------6-7-6---------|
|-4-5-------5-4-5-4-5-------5-4-5---|
|-----------------------------------|
  . . . . . . . . . . . . . . . .

|------------------------------------------|
|------------------------------------------|
|------------------------------------------|
|-0------2------0------2---2-2-2-2-2-2-2---|
|-0------2------0------2---2-2-2-2-2-2-2---|
|-0------2------0------2---2-2-2-2-2-2-2---|
                           . . . . . . .

|---------------------------------------------|
|---------------------------------------------|
|---------------------------------------------|
|---------------------------------------------|
|---------------------------------------------|
|-0-0-0-0-0-0-0-0-0-0-0-0-0-0-0-0-0-0-0-0-0-0-|
  . . . . . . . . . . . . . . . . . . . . . .

|------------------------------------------------------------------|
|------------------------------------------------------------------|
|------------------------------------------------------------------|
|-6-----5-------------------------3-----2--------------------------|
|-6-----5-------------------------3-----2--------------------------|
|-6-0-0-5-0-0-0-0-0-0-0-0-0-0-0-0-3-0-0-2-0-0-0-0-0-0-0-0-0-0-0-0--|
    . .   . . . . . . . . . . . .   . .   . . . . . . . . . . . .

|-----------------------------------|
|-----------------------------------|
|-----------------------------------|
|-6-----5----------3-----2----------|
|-6-----5---0-0-0--3-----2---0-2-3--|
|-6-0-0-5-0-0-0-0--3-0-0-2-0-0-2-3--|
    . .   . . . .    . .   . . . .
             
|-----------------------------------|
|-----------------------------------|
|-----------------------------------|2nd guitar plays this 
|-----------------------------------|
|-----------0-0-0------------0-2-3--|
|-----------0-0-0------------0-2-3--|
            . . .            . . .

|-------------------------------------|
|-------------------------------------|  
|-------------------------------------|
|-6------5----------6------5----------|
|-6------5----------6------5---5-6-8--|
|-6-0000-5-00000000-6-0000-5-0-5-6-8--|
    ....   ........   ....   . . . .

|--------------------------------|
|--------------------------------|
|--------------------------------|
|-6-------5-----6-----5----------|
|-6-------5-----6-----5---5-6-8--|
|-6-0-0-0-5-0-0-6-0-0-5-0-5-6-8--|
    . . .   . .   . .   . . . 


this is only about a minute and a half of it. ill tab the rest out when 
i have more time.

(key)

. palm mute    

Added On December 16th, 2013

SHARE

Comments

blog comments powered by Disqus

ADVERTISEMENT