Underoath Tabs

Breathing In A New Mentality

3 versions

TAB

            UNDEROATH
                Breathing in a New Mentality
             not totally sure on Tim's little solo
                Comment and not any mistakes


Drums intro

e-----------------------------------------------------------|
b-----------------------------------------------------------|
g-----------------------------------------------------------|
d--0~~------------------------------------------------------|
a--0~~------------------------------------------------------|
D--0~~------------------------------------------------------|

e----------------------------------------------------|
b----------------------------------------------------|
g----------------------------------------------------| x2
d----------------------------------------------------|
a--5-----------5-----------5-----------5-------------|
D----0-1-0-1-0---0-1-0-1-0---0-1-0-1-0---0-1-0-1s8p0-|

e-----------------------------------|
b-----------------------------------|
g------------------------------7777-|   x3
d------------------------------xxxx-|
a------------------------------5555-|
D--0--0--1-0--6666--0--0--1-0-------|

e----------------------------------       -----|
b----------------------------------       -----|
g--------------------------------7~       -----|
d--------------------------------x~       ---0-|
a--------------------------------5~       ---0-|
D--0--0--1-0--6666-0--0--1-0--1----       ---0-|

              (Keyboard sound effects)

e----------------------|
b----------------------|
g----------------------|
d--0~~---------------6-|
a--0~~---------------6-|
D--0~~---------------6-|

e-------------------------------------|
b-------------------------------------|
g-------------------------------------|
d-0-------00------------0-------00--0-|   x4
a-0-------00-(feedback)-0-------00--0-|
D-0--000--00------------0--000--00--0-|

e--------------       -----------------      ---------------------------|
b--------------       -----------------      ---------------------------|
g--------------       -----------------      ---------------------------|
d--0-0-3-1----- x4    -----xxxx-0-0-3-1- x1  -00-00-xxxx-0-0-0--0-0-3-1-| x4
a--0-0-3-1-----       -----xxxx-0-0-3-1-     -00-00-xxxx-0-0-0--0-0-3-1-|
D--0-0-3-1-----       -----xxxx-0-0-3-1-     -00-00-xxxx-0-0-0--0-0-3-1-|

e-----------------------------|
b-----------------------------|
g-----------------------------|
d--0-0-xxxx-0-0-0--0-0-xxxx-0-|
a--0-0-xxxx-0-0-0--0-0-xxxx-0-|
D--0-0-xxxx-0-0-0--0-0-xxxx-0-|    

Added On December 16th, 2013

SHARE

Comments

blog comments powered by Disqus

VERSIONS

ADVERTISEMENT