Ungu Tabs

Demi Waktu

2 versions

TAB

            Demi Waktu Tab by Ungu


Band  : Ungu
Lagu  : Demi waktu
Album : Melayang
Tab by: Fadli irfandi
E-mail: Fadli_irfandi_on7@yahoo.com

tabulasi ini gue buat sendiri. gue sengaja jarak satu nada dgn nada yang lain gue bikin 
agar kalian mudah membacanya dan mendengar nadanya. gue rasa tabulasi ini 95% benar. 
bagian akhir interludenya saja yang gue improvisasi sendiri. so, kalau kalian tau
pembetulannya, tolong kirim ke e-mail gue. dan jangan pernah putus asa.

Intro

    C		     Am                F		   G			   G

|------15------15---------15-----15--------15------15------------10---10----10------7----|
|--/13~------13--13--13^r------13--13--13^r------13--13--------12---12----12---12---8----|
|----------------------------------------------------------9/12---------------------7----|
|----------------------------------------------------------------------------------------|
|----------------------------------------------------------------------------------------|
|----------------------------------------------------------------------------------------|


Interlude
     C			    Am
|----------------------------------------------------------|
|----------------------------------------------------------|
|----9^r-9^r-9^r--9^r-7-5---5~-----------------------------|
|-------------------------7--------------------------------|
|----------------------------------------------------------|
|----------------------------------------------------------|

|--------------------------------------------------------|
|--------------------------------------8-8--8/10~--------|
|---------5----7^r5-----5------5---7/9--9----------------|
|-----5h7-------------7------7---------------------------|
|--------------------------------------------------------|
|--------------------------------------------------------|

      F					 G				      C
|--------------------------------------------------------------------------------------|
|-----10^r-8-5---------------------------5^r-------------------------------------------|
|--------------7-5---5~---------5~-7^r---------5h7-5~-----------5~--5-7----------------|
|------------------7---------5h7------------------------5-7-5h7-----------5h7-5--------|
|--------------------------------------------------------------------------------------|
|--------------------------------------------------------------------------------------|

                 Am

|---------17-19-19^r---17\15--15-17---15\12--15--15\17---------------------------------|
|-----/17------------------------------------------------------------------------------|
|--------------------------------------------------------------------------------------|
|--------------------------------------------------------------------------------------|
|--------------------------------------------------------------------------------------|
|--------------------------------------------------------------------------------------|

		 F

|-----17^r15--17-20---17^r-15----------------------------------------------------------|
|-----------------------------17-15^r--------------------------------------------------|
|--------------------------------------------------------------------------------------|
|--------------------------------------------------------------------------------------|
|--------------------------------------------------------------------------------------|
|--------------------------------------------------------------------------------------|

				   G						  C

|----------------------------------------------------------------------15--15h17--20~---|
|-17-15----------------------15----17-15-------------------------15h17---17-------------|
|-------17-14-17-------14-17-------------17-14-17----------14h17------------------------|
|-------------------17-------------------------------14h17------------------------------|
|---------------------------------------------------------------------------------------|
|---------------------------------------------------------------------------------------|    

Added On December 12th, 2013

SHARE

Comments

blog comments powered by Disqus

VERSIONS

ADVERTISEMENT