Union 13 Tabs

Un Muro Por Cruzar

1 versions

TAB

            Un Muro Por Cruzar Tab by Union 13


intro,verse and chorus:
e|------------------------------------------------------------------------|
B|------------------------------------------------------------------------|
G|-9----12-11-------------------------------------------------------------|
D|-9-10-12-11-------------------------------------------------------------|
A|-7-10-10-9--------------------------------------------------------------|
E|---8--------------------------------------------------------------------|

guitar 2 plays this over the chorus:
e|------------------------------------------------------------------------|
B|------------------------------------------------------------------------|
G|-999-12-12p11--999-12-12p11--999-12-12p11-12-14-14-14-14-12-------------|
D|------------------------------------------------------------------------|
A|------------------------------------------------------------------------|
E|------------------------------------------------------------------------|

this is all i know for the solo.
e|------------------------------------------------------------------------|
B|------------------------------------------------------------------------|
G|-99-11-12-12-12/14-14-14-12-14/16-16-16-16-16-14-14?????????????--------|
D|------------------------------------------------------------------------|
A|------------------------------------------------------------------------|
E|------------------------------------------------------------------------|


| /  slide up
| \  slide down
| h  hammer-on
| p  pull-off
| ~  vibrato
| +  harmonic
| x  Mute note

questons?
     crust_and_anguish_life@yahoo.com    

Added On December 12th, 2013

SHARE

Comments

blog comments powered by Disqus

ADVERTISEMENT