United Live Tabs

Second Chance

1 versions

TAB

            Second Chance by United Live
tabbed by Ferdinand Bato
email/fs: gatecrusher07@yahoo.com

intro: use delay
e|-----------0---------------------------|
B|------7----7---7---7----7--------------|
G|------8----8---8---8----8--------------|
D|------9------------9-------------------|
A|---------------------------------------|
E|---------------------------------------|

verse:
e|--------------------0------------|
B|-----7--------------7------------|
G|-----8--------------8------------|
D|-----9---------------------------|
A|---------------------------------|
E|---------------------------------|
you called my name....your hand

e|------4----------7--------------7--6-------|
B|------5----------5--------------7--7-------|
G|------6----------6--------------6--6-------|
D|-------------------------------------------|
A|-------------------------------------------|
E|-------------------------------------------|
i was redeemed....the momment....my life

chorus:
e|--7---7---7----7----6---6---6---6---7---7---7---7----------------------|
B|----7---7----7---7----7---7---7---7---7---7---7----7--7---7---7---7----|
G|--------------------------------------------------------9---9---9----9-|
D|-----------------------------------------------------------------------|
A|-----------------------------------------------------------------------|
E|-----------------------------------------------------------------------|

instrumental:

e|--------14--------|
B|---14-------12----|
G|------------------|
D|------------------|
A|------------------|
E|------------------|

other: B-E-G#m-F#m
going to bridge: E-F#m
bridge: B-F#m-G#m-E    

Added On December 16th, 2013

SHARE

Comments

blog comments powered by Disqus

ADVERTISEMENT