Unpaid Debt Tabs

Enemy

1 versions

TAB

            Enemy Tab by Unpaid Debt


Be Warned this is only the chords
I suck at lead and cant figure it out
so bear with me

Intro/verse
e---5--5--5--5------------121212---3--3--3--3-------------|
b---5--5--5--5--9--9--9---121212---3--3--3--3--7--7--7--7-|
G---6--6--6--6--9--9--9------------4--4--4--4--7--7--7--7-|
D---7--7--7--7--9--9--9------------5--5--5--5--7--5--7--7-|
A---7--7--7--7--9--9--9------------5--5--5--5--5--5--5--5-|
E---5--5--5--5--7--7--7------------3--3--3--3-------------|
(Figure out the strumming you have
to choke the strings between chords)


chorus (use only down strokes)
e-------------------------------------------------------|
b-------------------------------------------------------|
G--44444444-----------------------------44444444--------|
D--44444444-22222222-77777777-4444-2222-44444444-2222-2-|
A--22222222-22222222-77777777-4444-0000-22222222-2222-2-|
E-----------00000000-55554444-2222-0000----------0000-0-|


Bridge
e--------------------------------------------------------------------|
b--------------------------------------------------------------------|
G--44444444-----------------------------------------4444-------------|
D--44444444-22222222-7777777777777777-44444444-2222-4444-------------|
A--22222222-22222222-7777777777777777-44444444-0000-2222-------------|
E-----------00000000-5555555544444444-22222222-0000------------------|
PM|------------------------------------------------------------------|


Ending
e--------------------------------5--5--5--5--555----------------|
b--------------------------------5--5--5--5--555----------------|
G--44444444----------------------6--6--6--6--666----------------|
D--44444444--22222222---[x4]-----7--7--7--7--777----------------|
A--22222222--22222222------------7--7--7--7--777----------------|
E------------00000000------------5--5--5--5--555----------------|
 ("Enemy of my enemy")


Thats about it um the solo is the same
as the verse um go for it and
stay working classy!!!!    

Added On December 12th, 2013

SHARE

Comments

blog comments powered by Disqus

ADVERTISEMENT