Urban Dub Tabs

Soul Searching

6 versions

TAB

            Soul Searching Tab by Urban Dub


Title: Soul Searching
Artist: Urban Dub
Tabbed by: Masjud Sangki

Note: This file is the author's own work and represents their interpretation 
of the song. You may only use this file for private study, scholarship, or 
research. 

Pare hindi dropped-d ang soul searching... 
Standard Tuning lng po...

cia nga pla, Heart Evengelista... Pag kelangan m ng ???, and2
lang ako sa cotabato... hanapin m nlng ako d2...


Standard Tuning
(EADGBe)

/   - slide up/down
h   - hammer-ons


Intro
Guitar 1
e|-------------------------------------|
B|-------------------------------------|
G|-------------------------------------|
D|-------------------------------------|
A|----5-5-------7-7-7-6-6-7-7----------|
E|--4-----7-7-7---------------7-7------|

Guitar 2
e|-------------------------------------|
B|-------------------------------------|
G|--3-3-4-4--6-6/8-8/11-11-11-11-------|
D|--x-x-x-x--x-x/x-x/x--x--x--x--------|
A|--1-1-2-2--4-4/6-6/9--9--9--9--------|
E|-------------------------------------|

e|-------------------------------------|
B|-------------------------------------|
G|--3-3-4-4--6-6/8-8/6-6/4-4-3---------|
D|--x-x-x-x--x-x/x-x/x-x/x-x-x---------|
A|--1-1-2-2--4-4/6-6/4-4/2-2-1---------|
E|-------------------------------------|

Repeat 2x
e|-------------------------------------|
B|-------------------------------------|
G|--3-3-4-4--6-6/8-8/11-11-11-11-------|
D|--x-x-x-x--x-x/x-x/x--x--x--x--------|
A|--1-1-2-2--4-4/6-6/9--9--9--9--------|
E|-------------------------------------|


Verse
Guitar 1
e|-------------------------------------|
B|-------------------------------------|
G|-------------------------------------|
D|-------------------------------------|
A|----5-5-------7-7-7-6-6-7-7----------|
E|--4-----7-7-7---------------7-7------|

Guitar 2                                Repeat 3x 
e|-------------------------------------|----------------------------|
B|-------------------------------------|----------------------------|
G|-------------------------------------|----------------------------|
D|--5----------------------------------|---5-5-5--------------------|
A|--5----------------------------------|---5-5-5--------------------|
E|--4----------------------------------|---4-4-4--------------------|


Pre-Chorus
e|----------------------------|----------------------------|
B|----------------------------|----------------------------|
G|-----------4-4--6-6---------|-----------4-4/6-6----------|
D|--6-6-2-2--4-4--6-6--6-6----|--6-6-2-2--4-4/6-6--break---|
A|--6-6-2-2--2-2--4-4--6-6----|--6-6-2-2--2-2/4-4----------|
E|--4-4----------------4-4----|--4-4-----------------------|

then                           repeat 2x
e|----------------------------|----------------------------|
B|----------------------------|----------------------------|
G|----------4-4--6-6----------|-----------4-4/6-6----------|
D|--6-6-2-2-4-4--6-6--6-6-----|--6-6-2-2--4-4/6-6----------|
A|--6-6-2-2-2-2--4-4--6-6-----|--6-6-2-2--2-2/4-4----------|
E|--4-4---------------4-4-----|--4-4-----------------------|

Chorus
e|------------------------------|
B|------------------------------|
G|---------------6--------------|
D|--2------------6--------------|
A|--2------------4--------------|
E|------------------------------|

e|------------------------------------------------|
B|------------------------------------------------|
G|--------------7/6--7/6--7/6--7/6--7/9-9---------|
D|--2-----------X/X--X/X--X/x--x/x--x/9-9---------|
A|--2-----------5/4--5/4--5/4--5/4--5/7-7---------|
E|------------------------------------------------|

then
e|----------------------------------------------------|
B|----------------------------------------------------|
G|--------------6--------------5h7-5----------5h7-5---|
D|--2-----------6----------7-7------------7-7---------|
A|--2-----------4----------7-7------------7-7---------|
E|-------------------------5-5------------5-5---------|

Bridge
e|-------------------------------|
B|-------------------------------|
G|--6----------------------------|
D|--6-----------2----------------|
A|--4-----------2----------------|
E|-------------------------------|

e|-------------------------------|
B|-------------------------------|
G|--6----------------------------|
D|--6-----------2----------------|
A|--4-----------2----------------|
E|-------------------------------|
  pm-----------------------------

e|----------------------------------------------------|
B|----------------------------------------------------|
G|--6------------------------6------------------------|
D|--6------------2-----------6-----------7------------|
A|--4------------2-----------4-----------7------------|
E|---------------------------------------5------------|
  pm---------------------------------------------------

then
e|-----------|
B|-----------|
G|--6--------|
D|----6------|
A|------4----|
E|-----------|

Pls rate this tab...
For comments, email me at puremassacre81@silverchair.nu or txt me.. 09283273282
Comments are appreciated...    

Added On December 12th, 2013

SHARE

Comments

blog comments powered by Disqus