Urban Dub Tabs

The Fight Is Over

2 versions

TAB

            Title: The Fight Is Over
Artist: Urbandub
Album: Under Southern Lights
Tabbed by: xEph
	   www.friendster.com/xeph
	   pseudosymphonia@yahoo.com

Tuning: Drop D  half step down
Legend: / - slide
        h - hammer
	p - pull-off
	x - dead note
	* - palm mute
	~ - Let it ring
       () - ghost note


*Pag may mali pakipost na lang, salamat!*

Intro (2 Gtrs)

Eb|--3---3---3---3---3---3---3---3----||
Bb|----3---3---3---3---3---3---3------||
Gb|-5-5-5-5-5-5-5-5-5-5-5-5-5-5-5-----|| 
Db|-----------------------------------||
Ab|-----------------------------------||
Db|-----------------------------------||
  |                                   ||
Eb|---------------w/effect-12~---10~--||
Bb|-----------------------------------||
Gb|-----------------------------------|| 
Db|-----------------------------------||
Ab|-----------------------------------||
Db|-----------------------------------||


Eb|--3---3---3--3---3---3--3---3---3--||
Bb|--------3----------3----------3----||
Gb|-5-----5-5--5-----5-5--5-----5-5---||
Db|---5-3--------5-3--------5-3-------||
Ab|-----------------------------------||
Db|-----------------------------------||
  |                                   ||
Eb|-8-10-------8-10-12~---8-10--------||
Bb|-----10~8-10-------8-10---10~8-10--||
Gb|-----------------------------------|| 
Db|-----------------------------------||
Ab|-----------------------------------||
Db|-----------------------------------||

Eb|-----3---3---3---------------------||
Bb|-------3---3---3~------------------||
Gb|--4-5-5-5-5-5-5--------------------|| 
Db|-----------------------------------||
Ab|(5)--------------------------------||
Db|-----------------------------------||
  |                                   ||
Eb|-----------------------------------||
Bb|-----------------------------------||
Gb|-7~-10~---444----------------------|| 
Db|----------555(Clean)---------------||
Ab|----------555----------------------||
Db|-----------------------------------||



Verse 1 (2 Gtrs)

When the fighting is over
Eb|----------------------||
Bb|----------------------||
Gb|----------------------|| 
Db|-xx7-----x5------3----||
Ab|-xx7-----x5------3----||
Db|-xx7-----x5------3----||
  |                      ||
Eb|---3---------------3--||
Bb|----------------------||
Gb|-5--------------------|| 
Db|---------(5)----(3)---||
Ab|----------------------||
Db|----------------------||

Cuz our mouths ...run dry
Eb|----------------------||
Bb|----------------------||
Gb|----------------------|| 
Db|-xx7-----x5------7----||
Ab|-xx7-----x5------7----||
Db|-xx7-----x5------7----||
  |                      ||
Eb|---3------------------||
Bb|----------------------||
Gb|-5--------------------|| 
Db|---------(5)----(7)---||
Ab|----------------------||
Db|----------------------||

As our feelings get colder
Eb|--------------------------||
Bb|--------------------------||
Gb|--------------------------|| 
Db|-xx7-----x5------3--------||
Ab|-xx7-----x5------3--------||
Db|-xx7-----x5------3--------||
  |                          ||
Eb|---3---------------3---3--||
Bb|---------------------3----||
Gb|-5------------------5-5---|| 
Db|---------(5)----(3)-------||
Ab|--------------------------||
Db|--------------------------||

There's nothing to hold us now
Eb|--------------------------||
Bb|--------------------------||
Gb|--------------------------|| 
Db|-xx7-----x5------3--------||
Ab|-xx7-----x5------3--------||
Db|-xx7-----x5------3--------||
  |                          ||
Eb|---3---------------3---3--||
Bb|---------------------3----||
Gb|-5------------------5-5---|| 
Db|---------(5)----(3)-------||
Ab|--------------------------||
Db|--------------------------||

Gave all this... down
Eb|-------------------||
Bb|-------------------||
Gb|(4444444-55555)----|| 
Db|-5555555-77777--3~-||
Ab|-5555555-77777--3~-||
Db|----------------3~-||

Chorus 1 (2 Gtrs)

Can you explain... us?
Eb|------3-3--3-3--3--3--||
Bb|---------3----3--3----||
Gb|-------5--5-5--5--5---|| 
Db|----------------------||
Ab|----------------------||
Db|----------------------||

With words...  back ...even pleading...
Eb|----------------------------------------||
Bb|----------------------------------------||
Gb|----------------------------------------|| 
Db|---3333333333-7777777777---3-x-3--3--5--||
Ab|---3333333333-7777777777---3-x-3--3--5--||
Db|---3333333333-7777777777---3-x-3--3--5--||
  |                                        ||
Eb|----------------------------------------||
Bb|---3--3--3--3--3--3--3------------------||
Gb|----5--5--5--5--5--5--5-(repeat ? times)|| 
Db|-----5--5--5--5--5--5--5-(stop at F)----||
Ab|----------------------------------------||
Db|----------------------------------------||

Interlude

Eb|---------------------------------------||
Bb|---------------------------------------||
Gb|-------7-5(55)------------7------------|| 
Db|-----7-------------------7-7(77)-------||
Ab|-3-7----------7h8p7---3-7-------7h8p7--||
Db|---------------------------------------||

Eb|----------------------------||
Bb|----------------------------||
Gb|-------7-5(55)5-------------|| 
Db|-----7---------5555-33-x-3--||
Ab|-3-7----------------33-x-3--||
Db|--------------------33-x-3--||

Verse 2 (2 Gtrs)

I know you'll meet... better ...think of me?
Eb|--------------------------------------------------||
Bb|--------------------------------------------------||
Gb|--------------------------------------------------|| 
Db|-------------7-7----5-55-------3-33-33-3p2-22-3p2-||
Ab|-------------7------5----------3----33------------||
Db|-------------7------5----------3----33------------||

If he can't hold you like I did Would you run back to me?
Eb|--------------------------------------------------||
Bb|--------------------------------------------------||
Gb|--------------------------------------------------|| 
Db|-------------7-7----5-55-------3-33-33-3p2-22-3p2-||
Ab|-------------7------5----------3----33------------||
Db|-------------7------5----------3----33------------||

Yes I know this pain shall pass
Eb|-----------------------------||
Bb|-----------------------------||
Gb|-----------------------------|| 
Db|-----7-----------------------||
Ab|-----7-----------------------||
Db|-----7---------(5)------(3)--||
  |                             ||	
Eb|-----------------------------||
Bb|-----------------------------||
Gb|-----------------------------|| 
Db|----------------10-9~--------||
Ab|---------------------7-8~----||
Db|-----------------------------||

Gave all this time still we couldn't last.
Eb|-------------------------------------------||
Bb|-------------------------------------------||
Gb|--(4-4-4-4-4-4-4-4-5-5-5-5-5-5-5)----------|| 
Db|---5-5-5-5-5-5-5-5-7-7-7-7-7-7-7---333333~-||
Ab|---5-5-5-5-5-5-5-5-7-7-7-7-7-7-7---333333~-||
Db|-----------------------------------333333~-||
  |                                           ||
Eb|---3-2-0--------------3-2-0----------------||
Bb|--------3--3*-3*-3*-3*-----3--3*-3*-8~-10~-||
Gb|---------5--5*-5*-5*-5*-----5--5*-5*-------|| 
Db|----------5--5*-5*-5*--------5--5*---------||
Ab|----------(fast parts)---------------------||
Db|-------------------------------------------||


Chorus 2 (2 Gtrs)
  Explain...     us
Eb|-------------------||
Bb|-------------------||
Gb|-------------------|| 
Db|-1010101010101010--||
Ab|-1010101010101010--||
Db|-1010101010101010--||
  |                   ||
Eb|-10-10-10-10-10----||
Bb|--13-13-13-13-13---||
Gb|---12-12-12-12-12--|| 
Db|-------------------||
Ab|-------------------||
Db|-------------------||

With words...  back ...even pleading...us
Eb|-----------------------------------------||
Bb|-----------------------------------------||
Gb|-----------------------------------------|| 
Db|---3333333333-7-x-7-7-x-7-3333333333/77--||
Ab|---3333333333-7-x-7-7-x-7-3333333333/77--||
Db|---3333333333-7-x-7-7-x-7-3333333333/77--||
  |                                         ||
Eb|-----------------------------------------||
Bb|---3--3--3--3--3--3--3-------------------||
Gb|----5--5--5--5--5--5--5-(repeat ? times)-|| 
Db|-----5--5--5--5--5--5--5-(stop at F)-----||
Ab|-----------------------------------------||
Db|-----------------------------------------||

Bridge

How did we...promises...crashing down
Eb|---------------------------------------||
Bb|---------------------------------------||
Gb|---------------------------------5555--|| 
Db|-7-x-7--10-x-10--3-3-3-3-3-3-3-3-xxxx--||
Ab|-7-x-7--10-x-10--3-3-3-3-3-3-3-3-3333--||
Db|-7-x-7--10-x-10--3-3-3-3-3-3-3-3-------||

I have to say...    ...I wanna know.
Eb|-----------------------------------------||
Bb|-----------------------------------------||
Gb|-----------------------------------------|| 
Db|-7-x-7--10-x-10--3-x-3--3-x-3--3-x-3-----||
Ab|-7-x-7--10-x-10--3-x-3--3-x-3--3-x-3-----||
Db|-7-x-7--10-x-10--3-x-3--3-x-3--3-x-3-----||
  |                                         ||
Eb|-----------------------------------------||
Bb|----------------13-13-13-13------13-12---||
Gb|-----------------10-10-10-10----9-----9--|| 
Db|----------------------------9-10---------||
Ab|-----------------------------------------||
Db|-----------------------------------------||


Solo

Eb|--------------------------------------||
Bb|--------------------------------------||
Gb|--------------------------------------|| 
Db|-7-x-7--10-x-10--3-x-3-3-x-3----------||
Ab|-7-x-7--10-x-10--3-x-3-3-x-3----------||
Db|-7-x-7--10-x-10--3-x-3-3-x-3----------||
  |                                      ||
Eb|--------------------------------------||
Bb|-13-12----10------------------13-12---||
Gb|------9--12---9-----12--9----------9--|| 
Db|------------12---9-10-12-9-10---------||
Ab|-----------------------------10-------||
Db|--------------------------------------||

Eb|--------------------------------------||
Bb|--------------------------------------||
Gb|--------------------------------------|| 
Db|-7-x-7--10-x-10--3-x-3-3-x-3----------||
Ab|-7-x-7--10-x-10--3-x-3-3-x-3----------||
Db|-7-x-7--10-x-10--3-x-3-3-x-3----------||
  |                                      ||
Eb|---------------!---15------!(repeat 5x)|
Bb|-13-12----10---!1213-121315!-----------|
Gb|------9--12---9-----------------------|| 
Db|------------12------------------------||
Ab|--------------------------------------||
Db|--------------------------------------||

Chorus 3

  Explain...     us
Eb|-------------------||
Bb|-------------------||
Gb|-------------------|| 
Db|-1010101010101010--||
Ab|-1010101010101010--||
Db|-1010101010101010--||
  |                   ||
Eb|-10-10-10-10-10----||
Bb|--13-13-13-13-13---||
Gb|---12-12-12-12-12--|| 
Db|-------------------||
Ab|-------------------||
Db|-------------------||

With words...  back ...   not even pleading...save us now
Eb|------------------------------------------------||
Bb|------------------------------------------------||
Gb|-------------!repeat this part 2x!--------------|| 
Db|---3333333333!77-10-9--------9910!-3-x-3-3-x-5--||
Ab|---3333333333!77-------101012----!-3-x-3-3-x-5--||
Db|---3333333333!77-----77----------!-3-x-3-3-x-5--||
  |                                                ||
Eb|--------------10-10-10--------------------------||
Bb|---3--3--3--3--13-13-13-------------------------||
Gb|----5--5--5--5--12-12-12(repeat ? times)--------|| 
Db|-----5--5--5--5---------------------------------||
Ab|------------------------------------------------||
Db|------------------------------------------------||

Outro

The fighting is over...is over  The fighting is over
Eb|---------------------------------------------||
Bb|---------------------------------------------||
Gb|---------------------------------------------|| 
Db|-1010101010101010-333333333333-777777777777--||
Ab|-1010101010101010-333333333333-777777777777--||
Db|-1010101010101010-333333333333-777777777777--||
  |
Eb|---------------------------------------------||
Bb|------13-12----------------------------------||
Gb|----------12-12h14p12----10-9----------------|| 
Db|-----------------------------10h12-----------||
Ab|---------------------------------------------||
Db|---------------------------------------------||
 
 
   ...is over now
Eb|---------------||
Bb|---------------||
Gb|---------------|| 
Db|-333333333333--||
Ab|-333333333333--||
Db|-333333333333--||

   Owoh...  Owoh...
Eb|-------------------------------||
Bb|-------------------------------||
Gb|---------------------------4~--|| 
Db|-10--10--3--3--7--7--3--3--2~--||
Ab|-10--10--3--3--7--7--3--3--0~--||
Db|-10--10--3--3--7--7--3--3------||

	    \end/
  
Lyrics

When the fighting is over
Cuz our mouths have just run dry
As our feelings get colder
There's nothing to hold us now
Gave all this time just to be let down.

Can you explain to me
What has become of us?
With words released
We can never take them back
For all that we're worth now
Not even pleading can save us.

I know you'll meet someone better
But would you still think of me?
If he can't hold you like I did
Would you run back to me?
Yes I know this pain shall pass
Gave all this time still we couldn't last.

How did we end this way?
Our promises thrown away
All the years we've built, broken up
See it crashing down
I have to say.
Though alone in this crazy sea of faces
It's still your face I wanna know.

Can't save us now
The fighting is over now.    

Added On December 16th, 2013

SHARE

Comments

blog comments powered by Disqus

VERSIONS

ADVERTISEMENT